[Tuto Guitare] Les Gammes


nouveau message Répondre
Page 1 de 24
Recherche

aria35

1 photo
#
voila je crée ce post pour vous faliciter la vie je vais mettre toutes les gammes que j'ai(a savoir que j'en ai plus de 40 en passant de la gamme blues a la gamme en LA altérée)donc merci de patienter avant de mettre un topic pour que l'on puisse si retrouver et les avoir dans l'ordre sans intéruption merci de votre compréhension je vais essayer de faire vite icon_cheesygrin
Edit : toutes ces gammes sont réunies dans la partie cours : http://www.partoch.com/cours/cours_guitare,231,Les+Gammes+de+base+en+tablature.h...



aria35

1 photo
#
LA majeur
------------------------------4-5-7-----------------------
-------------------------5-7------------------------------
-------------------4-6-7----------------------------------
-------------4-6-7----------------------------------------
-------4-5-7----------------------------------------------
-4-5-7----------------------------------------------------


-------------------------------7-9-10---------------------
------------------------7-9-10----------------------------
------------------6-7-9-----------------------------------
------------6-7-9-----------------------------------------
--------7-9-----------------------------------------------
-7-9-10---------------------------------------------------


--------------------------------------9-10-12-------------
------------------------------9-10-12---------------------
-------------------------9-11-----------------------------
-----------------9-11-12----------------------------------
---------9-11-12------------------------------------------
-9-10-12--------------------------------------------------


-------------------------------------------12-14----------
----------------------------------12-14-15----------------
-------------------------11-13-14-------------------------
----------------11-12-14----------------------------------
-------11-12-14-------------------------------------------
-12-14----------------------------------------------------


-------------------------------------------14-16-17-------
----------------------------------14-15-17----------------
-------------------------13-14-16-------------------------
-------------------14-16----------------------------------
----------14-16-17----------------------------------------
-14-16-17-------------------------------------------------


aria35

1 photo
#
LA mineur
-----------------------------5-7-8-----------------
-----------------------5-6-8-----------------------
-----------------4-5-7-----------------------------
-------------5-7-----------------------------------
-------5-7-8---------------------------------------
-5-7-8---------------------------------------------

----------------------------------7-8-10------------
-----------------------------8-10-------------------
----------------------7-9-10------------------------
---------------7-9-10-------------------------------
--------7-8-10--------------------------------------
-7-8-10---------------------------------------------

-----------------------------------------10-12-13---
--------------------------------10-12-13------------
------------------------9-10-12---------------------
----------------9-10-12-----------------------------
----------10-12-------------------------------------
-10-12-13-------------------------------------------

-------------------------------------------12-13-15-
----------------------------------12-13-15----------
----------------------------12-14-------------------
-------------------12-14-15-------------------------
----------12-14-15----------------------------------
-12-13-15-------------------------------------------

-------------------------------------------15-17----
----------------------------------15-17-18----------
-------------------------14-16-17-------------------
----------------14-15-17----------------------------
-------14-15-17-------------------------------------
-15-17----------------------------------------------


aria35

1 photo
#
LA mineur pentatonique
---------------------5-8------------------
-----------------5-8----------------------
-------------5-7--------------------------
---------5-7------------------------------
-----5-7----------------------------------
-5-8--------------------------------------

-------------------------8-10-------------
--------------------8-10------------------
----------------7-9-----------------------
-----------7-10---------------------------
------7-10--------------------------------
-8-10-------------------------------------

------------------------------10-12-------
------------------------10-13-------------
-------------------9-12-------------------
-------------10-12------------------------
-------10-12------------------------------
-10-12------------------------------------

-------------------------------12-15------
-------------------------13-15------------
-------------------12-14------------------
-------------12-14------------------------
-------12-15------------------------------
-12-15------------------------------------

-------------------------------15-17------
-------------------------15-17------------
-------------------14-17------------------
-------------14-17------------------------
-------15-17------------------------------
-15-17------------------------------------


1 membre aime ça

aria35

1 photo
#
LA majeur pentatonique
---------------------2-5--------------------
-----------------2-5------------------------
-------------2-4----------------------------
---------2-4--------------------------------
-----2-4------------------------------------
-2-5----------------------------------------

---------------------5-7--------------------
-----------------5-7------------------------
-------------4-6----------------------------
---------4-7--------------------------------
-----4-7------------------------------------
-5-7----------------------------------------

----------------------7-9-------------------
-----------------7-10-----------------------
-------------6-9----------------------------
---------7-9--------------------------------
-----7-9------------------------------------
-7-9----------------------------------------

---------------------------9-12-------------
---------------------10-12------------------
----------------9-11------------------------
-----------9-11-----------------------------
------9-12----------------------------------
-9-12---------------------------------------

-------------------------------12-14--------
-------------------------12-14--------------
-------------------11-14--------------------
-------------11-14--------------------------
-------12-14--------------------------------
-12-14--------------------------------------


1 membre aime ça

aria35

1 photo
#
LA dorien
-------------------------------5-7-8----------------
------------------------5-7-8-----------------------
------------------4-5-7-----------------------------
------------4-5-7-----------------------------------
-------5-7------------------------------------------
-5-7-8----------------------------------------------

---------------------------------7-8-10-------------
--------------------------7-8-10--------------------
----------------------7-9---------------------------
---------------7-9-10-------------------------------
--------7-9-10--------------------------------------
-7-8-10---------------------------------------------

-------------------------------------------12-14-15-
----------------------------------12-13-15----------
-------------------------11-12-14-------------------
-------------------12-14----------------------------
----------12-14-15----------------------------------
-12-14-15-------------------------------------------


aria35

1 photo
#
LA blues
-------------------------5-8----------------------
---------------------5-8--------------------------
---------------5-7-8------------------------------
-----------5-7------------------------------------
-----5-6-7----------------------------------------
-5-8----------------------------------------------

------------------------------8-10-11-------------
-------------------------8-10---------------------
-------------------7-8-9--------------------------
--------------7-10--------------------------------
---------7-10-------------------------------------
-8-10-11------------------------------------------

-------------------------------------12-15--------
----------------------------13-15-16--------------
----------------------12-14-----------------------
-------------12-13-14-----------------------------
-------12-15--------------------------------------
-12-15--------------------------------------------


1 membre aime ça

aria35

1 photo
#
MI blues
-------------------------0-3---
---------------------0-3-------
---------------0-2-3-----------
-----------0-2-----------------
-----0-1-2---------------------
-0-3---------------------------


aria35

1 photo
#
LA country
-------------------------2-5----------------------
---------------------2-5--------------------------
---------------2-4-5------------------------------
-----------2-4------------------------------------
-----2-3-4----------------------------------------
-2-5----------------------------------------------

---------------------------------9-12-------------
------------------------10-12-13------------------
-------------------9-11---------------------------
-----------9-10-11--------------------------------
------9-12----------------------------------------
-9-12---------------------------------------------


aria35

1 photo
#
SOL pentatonique majeur
--------------------0-3-------
----------------0-3-----------
------------0-2---------------
--------0-2-------------------
----0-2-----------------------
--3---------------------------


aria35

1 photo
#
LA mixolydien
-----------------------------2-3-5------
-----------------------2-3-5------------
-------------------2-4------------------
-------------2-4-5----------------------
-------2-4-5----------------------------
-2-3-5----------------------------------

------------------------------5-7-------
------------------------5-7-8-----------
-----------------4-6-7------------------
-----------4-5-7------------------------
-----4-5-7------------------------------
-5-7------------------------------------


aria35

1 photo
#
MI mineur pentatonique
---------------------0-3-----
-----------------0-3---------
-------------0-2-------------
---------0-2-----------------
-----0-2---------------------
-0-3-------------------------


aria35

1 photo
#
LA phrygien
-----------------------------5-6-8---
-----------------------5-6-8---------
-------------------5-7---------------
-------------5-7-8-------------------
-------5-7-8-------------------------
-5-6-8-------------------------------


aria35

1 photo
#
LA mineur harmonique
-------------------------------------------12-13-16---
----------------------------------12-13-15------------
----------------------------13-14---------------------
-------------------12-14-15---------------------------
----------12-14-15------------------------------------
-12-13-16---------------------------------------------


aria35

1 photo
#
LA mineur mélodique
---------------------------4-5-7--------------
-----------------------5-7--------------------
-----------------4-5-7------------------------
-----------4-6-7------------------------------
-------5-7------------------------------------
-5-7-8----------------------------------------




nouveau message Répondre
Page 1 de 24
Recherche


plan Plan du Forum Solfège||Tags : gammes, les, mettre, gamme, vais, merci, toutes, cours, alteree