Les autres gammes


10.3 Les Gammes de base en tablature

de aria35, déposé le 27/05/2014,


Voici la liste des gammes les plus courantes en tablatures

LA majeur
------------------------------4-5-7-----------------------
-------------------------5-7------------------------------
-------------------4-6-7----------------------------------
-------------4-6-7----------------------------------------
-------4-5-7----------------------------------------------
-4-5-7----------------------------------------------------


-------------------------------7-9-10---------------------
------------------------7-9-10----------------------------
------------------6-7-9-----------------------------------
------------6-7-9-----------------------------------------
--------7-9-----------------------------------------------
-7-9-10---------------------------------------------------


--------------------------------------9-10-12-------------
------------------------------9-10-12---------------------
-------------------------9-11-----------------------------
-----------------9-11-12----------------------------------
---------9-11-12------------------------------------------
-9-10-12--------------------------------------------------


-------------------------------------------12-14----------
----------------------------------12-14-15----------------
-------------------------11-13-14-------------------------
----------------11-12-14----------------------------------
-------11-12-14-------------------------------------------
-12-14----------------------------------------------------


-------------------------------------------14-16-17-------
----------------------------------14-15-17----------------
-------------------------13-14-16-------------------------
-------------------14-16----------------------------------
----------14-16-17----------------------------------------
-14-16-17-------------------------------------------------


LA mineur
-----------------------------5-7-8-----------------
-----------------------5-6-8-----------------------
-----------------4-5-7-----------------------------
-------------5-7-----------------------------------
-------5-7-8---------------------------------------
-5-7-8---------------------------------------------

----------------------------------7-8-10------------
-----------------------------8-10-------------------
----------------------7-9-10------------------------
---------------7-9-10-------------------------------
--------7-8-10--------------------------------------
-7-8-10---------------------------------------------

-----------------------------------------10-12-13---
--------------------------------10-12-13------------
------------------------9-10-12---------------------
----------------9-10-12-----------------------------
----------10-12-------------------------------------
-10-12-13-------------------------------------------

-------------------------------------------12-13-15-
----------------------------------12-13-15----------
----------------------------12-14-------------------
-------------------12-14-15-------------------------
----------12-14-15----------------------------------
-12-13-15-------------------------------------------

-------------------------------------------15-17----
----------------------------------15-17-18----------
-------------------------14-16-17-------------------
----------------14-15-17----------------------------
-------14-15-17-------------------------------------
-15-17----------------------------------------------


LA majeur pentatonique
---------------------2-5--------------------
-----------------2-5------------------------
-------------2-4----------------------------
---------2-4--------------------------------
-----2-4------------------------------------
-2-5----------------------------------------

---------------------5-7--------------------
-----------------5-7------------------------
-------------4-6----------------------------
---------4-7--------------------------------
-----4-7------------------------------------
-5-7----------------------------------------

----------------------7-9-------------------
-----------------7-10-----------------------
-------------6-9----------------------------
---------7-9--------------------------------
-----7-9------------------------------------
-7-9----------------------------------------

---------------------------9-12-------------
---------------------10-12------------------
----------------9-11------------------------
-----------9-11-----------------------------
------9-12----------------------------------
-9-12---------------------------------------

-------------------------------12-14--------
-------------------------12-14--------------
-------------------11-14--------------------
-------------11-14--------------------------
-------12-14--------------------------------
-12-14--------------------------------------


LA mineur pentatonique
---------------------5-8------------------
-----------------5-8----------------------
-------------5-7--------------------------
---------5-7------------------------------
-----5-7----------------------------------
-5-8--------------------------------------

-------------------------8-10-------------
--------------------8-10------------------
----------------7-9-----------------------
-----------7-10---------------------------
------7-10--------------------------------
-8-10-------------------------------------

------------------------------10-12-------
------------------------10-13-------------
-------------------9-12-------------------
-------------10-12------------------------
-------10-12------------------------------
-10-12------------------------------------

-------------------------------12-15------
-------------------------13-15------------
-------------------12-14------------------
-------------12-14------------------------
-------12-15------------------------------
-12-15------------------------------------

-------------------------------15-17------
-------------------------15-17------------
-------------------14-17------------------
-------------14-17------------------------
-------15-17------------------------------
-15-17------------------------------------


LA dorien
-------------------------------5-7-8----------------
------------------------5-7-8-----------------------
------------------4-5-7-----------------------------
------------4-5-7-----------------------------------
-------5-7------------------------------------------
-5-7-8----------------------------------------------

---------------------------------7-8-10-------------
--------------------------7-8-10--------------------
----------------------7-9---------------------------
---------------7-9-10-------------------------------
--------7-9-10--------------------------------------
-7-8-10---------------------------------------------

-------------------------------------------12-14-15-
----------------------------------12-13-15----------
-------------------------11-12-14-------------------
-------------------12-14----------------------------
----------12-14-15----------------------------------
-12-14-15-------------------------------------------


LA blues
-------------------------5-8----------------------
---------------------5-8--------------------------
---------------5-7-8------------------------------
-----------5-7------------------------------------
-----5-6-7----------------------------------------
-5-8----------------------------------------------

------------------------------8-10-11-------------
-------------------------8-10---------------------
-------------------7-8-9--------------------------
--------------7-10--------------------------------
---------7-10-------------------------------------
-8-10-11------------------------------------------

-------------------------------------12-15--------
----------------------------13-15-16--------------
----------------------12-14-----------------------
-------------12-13-14-----------------------------
-------12-15--------------------------------------
-12-15--------------------------------------------


MI blues
-------------------------0-3---
---------------------0-3-------
---------------0-2-3-----------
-----------0-2-----------------
-----0-1-2---------------------
-0-3---------------------------


FA# blues
-------------------------2-5----------------------
---------------------2-5--------------------------
---------------2-4-5------------------------------
-----------2-4------------------------------------
-----2-3-4----------------------------------------
-2-5----------------------------------------------

---------------------------------9-12-------------
------------------------10-12-13------------------
-------------------9-11---------------------------
-----------9-10-11--------------------------------
------9-12----------------------------------------
-9-12---------------------------------------------


SOL pentatonique majeur
--------------------0-3-------
----------------0-3-----------
------------0-2---------------
--------0-2-------------------
----0-2-----------------------
--3---------------------------


LA mixolydien
-----------------------------2-3-5------
-----------------------2-3-5------------
-------------------2-4------------------
-------------2-4-5----------------------
-------2-4-5----------------------------
-2-3-5----------------------------------

------------------------------5-7-------
------------------------5-7-8-----------
-----------------4-6-7------------------
-----------4-5-7------------------------
-----4-5-7------------------------------
-5-7------------------------------------


MI mineur pentatonique
---------------------0-3-----
-----------------0-3---------
-------------0-2-------------
---------0-2-----------------
-----0-2---------------------
-0-3-------------------------


LA phrygien
-----------------------------5-6-8---
-----------------------5-6-8---------
-------------------5-7---------------
-------------5-7-8-------------------
-------5-7-8-------------------------
-5-6-8-------------------------------


LA mineur harmonique
-------------------------------------------12-13-16---
----------------------------------12-13-15------------
----------------------------13-14---------------------
-------------------12-14-15---------------------------
----------12-14-15------------------------------------
-12-13-16---------------------------------------------


LA mineur mélodique
---------------------------4-5-7--------------
-----------------------5-7--------------------
-----------------4-5-7------------------------
-----------4-6-7------------------------------
-------5-7------------------------------------
-5-7-8----------------------------------------


LA pentatonique mineure avec 6te majeure
----------------------5-8-------------------
------------------5-7-----------------------
--------------5-7---------------------------
----------4-7-------------------------------
-----5-7------------------------------------
-5-8----------------------------------------


LA altérée
-----------------------------5-6-8-------------------
-------------------------6-8-------------------------
-------------------5-6-8-----------------------------
-------------5-7-8-----------------------------------
-------4-6-8-----------------------------------------
-5-6-8-----------------------------------------------


LA par tons
-----------------------------5-7-9-------------------
-------------------------6-8-------------------------
--------------------6-8------------------------------
-------------5-7-9-----------------------------------
--------6-8------------------------------------------
-5-7-9-----------------------------------------------


LA diminuée
--------------------------------5-6-8-------------------
--------------------------5-7-8-------------------------
--------------------5-6-8-------------------------------
--------------5-7-8-------------------------------------
--------6-7-9-------------------------------------------
-6-8-9--------------------------------------------------


A lire aussi :
  • Utilisations des gammes pentatoniques et du mode mixolydien pour le blues.
  • Cours de gratte en audio - Vendez ecouter
  • v-ampire modification de requête
  • Amateur d'électronique et bricoleur, pouvez-vous m'aider?
  • Quelqu'un a-t-il déjà casser sa gratte en s'énervant dessus??
  • Demande de l'aide guitare funk-rock
  • Besoin d'aide et de conseils pour achat de nouvelle gratt. Aidez-moi svp !!!
  • Epiphone G-400 - Hagstroem Super Swede
  • aide construction basse-poubelle!






  • Désolé, Seuls les membres connectés et ayant consulté ce cours peuvent donner leur avis... !!

    Vous pouvez vous connecter avec le formulaire en haut à droite de cette page ou en cliquant ici