Time is running out wembley


nouveau message Répondre
Recherche

#
Bonjour, je cherche une tab basse de time is running out à wembley. j'aimerai surtout avoir les differents solo. j'ai trouvé un cover sur youtube mais j'arrive pas à retranscrire la tab.

http://www.youtube.com/watch?v=DiqrbxtnDhA

#
G|-------------------------------------------|
D|---------------------00-1--2--22-----------|
A|-0-3-00-33-0-22-0-22----------------3---5--|
E|-------------------------00-00--0h11-1/3-3-|

Prechorus(switch down the disto)

G|---------------------------------|
D|---------------------------------|
A|---------------------------------|
E|-11111111333333335555555533333333|

G|----------------------------------|
D|----------------------------------|
A|-------------------------33333333|
E|-111111113333333355555555---------|


Chorus 1 (now turn on the disto effect again)

G|---------------------------------|
D|---------------------------------|
A|-------------------------33333333|
E|-111111113333333355555555--------|

G|-----------------------------------|
D|-----------------------------------|
A|----------------------------3----5-|
E|-111111113333333355555555-11-1/33-3|

Verse 1 (use just the distortion effect)

G|-----------------------------------|
D|----------------------2------------|
A|-0-0-3-0--2-2-0-2-----------3----5-| x3
E|------------------0-0---0-11-1/33-3|

(turn on the digital delay!)
G|-------------------------------------------|
D|---------------------00-1--2--22-----------|
A|-0-3-00-33-0-22-0-22----------------3---5--|
E|-------------------------00-00--0h11-1/3-3-|


Prechorus 2( clear song for this part)


G|---------------------------------|
D|---------------------------------|
A|---------------------------------|
E|-11111111111111113333333333333333|

G|---------------------------------|
D|---------------------------------|
A|---------------------------------|
E|-55555555555555553333333333333333|

G|---------------------------------|
D|---------------------------------|
A|---------------------------------|
E|-11111111111111113333333333333333|

G|----------------------------------|
D|----------------------------------|
A|-----------------3333333333333333|
E|-5555555555555555-----------------|

Chorus 2( just like befor turn on the disto and the delay)

G|---------------------------------|
D|---------------------------------|
A|-------------------------33333333|
E|-111111113333333355555555--------|

G|-------------------------|
D|-------------------------|
A|-------------------------|
E|-111111113333333355555023|

(clear sound again)
G|-------0122------------0122-|
D|-002233----------002233-----|
A|-----------002233-----------|
E|----------------------------|

G|-------------0122----------------------|
D|-------002233--------------------------|
A|-002233----------002233----------------|
E|-----------------------0000000000000000|


Verse 2(use just the distortion effect like in the 1st)

G|-------------------------------------------|
D|---------------------00-1--2--22-----------|
A|-0-3-00-33-0-22-0-22----------------3---5--| x3
E|-------------------------00-00--0h11-1/3-3-|

Outo

G|-----|
D|-----|
A|-0030| x2
E|-----|

G|--------------|
D|--------------|
A|-00305�--0030|
E|-----3�------|

Voila je pense quia presque tous bonne gratte smiley-guitar

#
Attens sur ce que je t'es donné on comprends rien jte ^passe le lien c mieux smile http://www.911tabs.com/link/?3641187

#
Attens sur ce que je t'es donné on comprends rien jte ^passe le lien c mieux smile http://www.911tabs.com/link/?3641187

#
Merci pour la tab je la jouais pas comme ça et c'est pas mal la. Mais en faite je voulai surtout savoir si quelqu'un connaissait le solo sur la cover à 2min33...( http://www.youtube.com/watch?v=DiqrbxtnDhA )

#
Ah j'ai vue en effets un peu chaud

#
ouai mais le rendu est génial... du coup je recherche désesperement une tab pour en chier grave et surement pas y arriver!!

patedefoie

Petit causeur
39 messages
#
moi j'ai un bon site,ou il ya tab de basse et guitare:

http//:guitar'addicts.com


nouveau message Répondre Recherche


Répondre à cette discussion >>


Autre liens sur le site pour Muse : Discographie Muse - Tee Shirt Muse - Poster Muse
plan Plan du Forum Fans||Tags : out, tab, wembley, running, time, basse, aimerai, cherche, MUSE