Solo Hysteria

close
FILTRES DE LA RECHERCHE


Artiste participatif
108 messages
Salut!
Je m'attaque au solo de Hysteria depuis environ une demi-heure et malgré que je me débrouille bien mon bras droit en chie pas mal.
Vaut-il mieux que je le joue en "aller-retour" avec le médiator?

Comment vous le jouez vous?


Artiste participatif
108 messages
Personne n'a de conseils? sad


5 messages
Moi perso je ne suis pas un boss en plus niveau solo meme si je me débrouille bien je suis pas trop doué j'arrive par exemple a faire le petit solo de Metallica - The Unforgiven mais pas plus.... Enfin bref pour toi je te conseil si tu t'attaques a un solo dur comme celui d'Hysteria ui je te conseille très vivement l'aller-retour de médiator....Enfin moi c'est mon point de vue.... Voilà j'éspère que je t'ai aidé et pis bonne chance......

de toute façon ta pas d'autre choix que l'aller retour au médiator pour bien le faire :p


Artiste participatif
108 messages
Ok merci de vos réponses ^^

Vous auriez pas des morceaux pour m'entraîner à l'aller retour svp? icon_cheesygrin

Moi je m'entraîne sur l'intro de "Island in the sun", de Weezer. En tout cas, il faut parfois aller vers le bas, parfois vers le haut en fin bref. J'ai mis quand même +- 3 jours pour savoir la faire. Mais, tu pourrais pas juste me montrer la tab du solo Hystéria, comme ça je vois, et en même temps, le solo est pas mal, j'aimerais tenter. Merci^^!

Voici la tab: Em Am D G

Rythme: http://www.youtube.com/watch?v=hy4Y20dOlKs


Artiste participatif
108 messages
Ok merci pour ton aide je vais voir ca tout de suite! icon_cheesygrin

Voici la partie 1 du solo de Hystéria (celle où il faut utiliser l'aller-retour), si tu veux la partie tu peux la trouver facilement ^^ :

Pt.1 - with Whammy pedal

E||--------12-12-------13-13-------13-13-12-12----12-|
B||--------------------------------------------------|
G||--14-14-------14-14-------14-14-------------14----|
D||--------------------------------------------------|
A||--------------------------------------------------|
E||--------------------------------------------------|



--------12-12-------13-13-------13-13-12-12-----|
------------------------------------------------|
--13-13-------13-13-------13-13-------------13--|
------------------------------------------------|
------------------------------------------------|
------------------------------------------------|



--------12-12-------17-17-------13-13-------12-12-|
--------------------------------------------------|
--14-14-------14-14-------14-14-------14-14-------|
--------------------------------------------------|
--------------------------------------------------|
--------------------------------------------------|



--------12-12-------13-13-------13-13-12-12----12-|
--------------------------------------------------|
--14-14-------14-14-------14-14-------------14----|
--------------------------------------------------|
--------------------------------------------------|
--------------------------------------------------|



--------12-12-------13-13-------13-13-12-12----12-|
--------------------------------------------------|
--14-14-------14-14-------14-14-------------14----|
--------------------------------------------------|
--------------------------------------------------|
--------------------------------------------------|



--------12-12-------13-13-------13-13-12-12-----|
------------------------------------------------|
--13-13-------13-13-------13-13-------------13--|
------------------------------------------------|
------------------------------------------------|
------------------------------------------------|



--------12-12-------17-17-------13-13-------12-12-|
--------------------------------------------------|
--14-14-------14-14-------14-14-------14-14-------|
--------------------------------------------------|
--------------------------------------------------|
--------------------------------------------------|



--12----------------------------------------------||
--------------15----------13----------12----------||
-----14-14-14-------------------------------------||
-----------------15-15-15----14-14-14----12-12-12-||
--------------------------------------------------||
--------------------------------------------------||


Artiste participatif
108 messages
Mince sa a pas marcher le copier collé :s tan pis voilà un lien ^^ tu n'auras qu'à dérouler la page ^^ http://www.musewiki.org/Hysteria_(tablature)

Je mes celui-là car celles de partoch sont pas vraiment exactes sad

Ok merci^^


5 messages
Déjà moi je dis que les tablature textes sont assez difficiles à utiliser du fait que sa te donnes pas le rythme ou même le tempo des notes c'est ce que j'utilisais autrefois mais c'est assez complexes a déchiffrer je te conseil donc (si tu peux/veux bien evidement) d'acheter le logiciel Guitar Pro 5 ce logiciel est fabuleux et est beaucoup plus pratique avec des tablatures/partitions beaucoup plus rigoureuses!!!!

Guitar Pro 5 : http://www.guitar-pro.com/fr/index.php?pg=acheter Soit il est cher mais il en vaut la peine!!!!(59€)

Tablatures Guitar Pro 5 sur : http://www.ultimate-guitar.com/
http://www.grattable.com/
http://www.tabscout.com/

Ceci sont ceux que j'utilise après comme module de recherche de tablature sur differents sites : http://www.911tabs.com/

Voilà j'éspère vous avoir aidés.... icon_cheesygrin
 Citation :
Vive la Gratte smiley-guitar et le diable violent2 MDR


Enfin moi, je fais quelques solos avec des tablatures comme ça, mais d'habitude j'utilise les accords






>> Plan du Forum Tablatures | suivi de la discussion | Tags : hysteria, solo, brouille, bien, malgr, demi-heure, MUSE, attaque, depuis

+