TV

Tablature ncis enquetes speciales

Tv
Variétés
Ajouter à mes artistes favoris
Format : Tablature Ncis enquêtes spéciales, Tv
Version #3050490 mise en tablature par mat57
Difficulté : 3/10
Note : 1/5 sur 31 avis

Tablature Ncis enquêtes spéciales, Tv

mélodie e-----------------------------------------------------------! b-----------------------------------------------------------! g-----------------------------------------------------------* d-----------------2-0---------------------------------------* a-2-2-5-4---2-5-4-----4-2-----5-5---4-2-0-0-2-4---0-0-------! e-------------------------3-3-------------------------3-----! accords Bm G A e-2-----------------------3---------------------0----------- b-3-----------------------3---------------------2----------- g-4-----------------------4---------------------2----------- d-4-----------------------5---------------------2----------- a-2-----------------------5---------------------0----------- e-------------------------3---------------------------------

Note cette tablature :



Connecte toi pour déposer un commentaire sur cette tablature !

Vos avis sur la tablature NCIS enquêtes spéciales de tv #3050490


lion dread

lion dread

le 19/07/2011 13:08:43

Pour la vrai tab de NCIS la voilà :

|-------------------------------------------------------|
|-------------------------------------------------------|
|----1--0-----------------------------1--0--3--1--0-----|
|----------------------------------------------------3--|
|-3--------------------------------3--------------------|
|-------------------------------------------------------|

|-------------------------------------------------------|
|-------------------------------------------------------|
|-------1--------------0--------------------------------|
|------------------------3--1--3-----1------------------|
|-4-------------------------------1-----4--3------------|
|-------------------------------------------------------|


lion dread

lion dread

le 19/07/2011 12:33:03

Pour la vrai tab de NCIS la voilà :

|-------------------------------------------------------|
|-------------------------------------------------------|
|----1--0-----------------------------1--0--3--1--0-----|
|----------------------------------------------------3--|
|-3--------------------------------3--------------------|
|-------------------------------------------------------|

|-------------------------------------------------------|
|-------------------------------------------------------|
|-------1--------------0--------------------------------|
|------------------------3--1--3-----1------------------|
|-4-------------------------------1-----4--3------------|
|-------------------------------------------------------|


shiva29

shiva29

le 18/09/2010 15:16:26

Ya personne qui aurait la VRAIE tablature de NCIS ?


rbx-xoxo

rbx-xoxo

le 29/08/2010 19:25:09

je vois pas ou tu le vois l'air de NCIS


shiva29

shiva29

le 23/08/2010 20:33:26

On ne reconnait ABSOLUMENT pas l'air, désolée je sais que tu mets ça en ligne pour nous faire plaisir mais ce n'est pas franchement réussi.


termo

termo

le 22/05/2010 11:44:01

Nul !! imposible a reconnaitre a part eventuellement le debut et encore ...


Inconnu...

Inconnu...

le 16/05/2010 14:24:24

C'est pas ça en tout cas pour moi


flo-flo98

flo-flo98

le 15/03/2010 18:36:47

moi désolé mais le début je n'y ai rien compris ça doit pas être ça mais de toute façon la suite non plus


Inconnu...

Inconnu...

le 06/02/2010 15:47:35

le début bien mais aprés pas terrible !!


Inconnu...

Inconnu...

le 17/01/2010 10:14:46

le début sa va mes après c'est grand n'importe quoi


chupaa-chuups

chupaa-chuups

le 06/01/2010 12:30:10

Pas surper =/


Inconnu...

Inconnu...

le 22/12/2009 11:59:56

le debut et bien mai la suite...un pe rein compris mai si nn sa se tien


Inconnu...

Inconnu...

le 28/06/2009 20:16:43

:'(…


cyberweb

cyberweb

le 15/05/2009 17:08:13

très bien


tablature NCIS enquêtes spéciales tv

Cette Tablature NCIS enquêtes spéciales de tv est la création ou l'interprétation personnelle de l'artiste qui l'a déposé.
Conformément aux dispositions du Code de la Propriété Intellectuelle, seule l'utilisation de cette représentation pour un usage privé, réduite au cercle de famille, et la reproduction (impression, téléchargement) pour un usage strictement personnel, sont autorisés.
Rappel : Pour se conformer aux lois sur la propriété intellectuelle, les paroles de chansons ne sont pas autorisées sur Partoch.com. Retour aux Tablatures de tv.