TV

Tablature charlie chaplin

Tv
Variétés
Ajouter à mes artistes favoris
Format : Tablature Charlie chaplin, Tv
Version #3052477 mise en tablature par grotib
Difficulté : 4/10
Note : 4/5 sur 15 avis

Tablature Charlie chaplin, Tv

|-----5-6-5-4-5-6-5--5-6-5-9-5-5-3--3-5-3-0-3-3-1--1-1-0-0---- |----------------------------------------------------------4-5 |------------------------------------------------------------- |------------------------------------------------------------- |------------------------------------------------------------- |------------------------------------------------------------- |-10-9-8-7-5-10--10--9-8-7-5-10--10-12-13-12-10-8-6-5-10-12-13-12-10-8-6-5 |------------------------------------------------------------------------- |------------------------------------------------------------------------- |------------------------------------------------------------------------- |------------------------------------------------------------------------- |------------------------------------------------------------------------- etc ... voila normalement je me suis pas planté cette fois, mais dites moi s'il y a des érreurs.... :)

Note cette tablature :



Connecte toi pour déposer un commentaire sur cette tablature !

Vos avis sur la tablature charlie chaplin de tv #3052477


elisadc29

elisadc29

le 12/10/2013 12:56:22

Bien ! Merci !


Inconnu...

Inconnu...

le 06/08/2011 14:29:13

|-----5-6-5-4-5-6-5--5-6-5-9-5-5-3--3-5-3-0-3-3-1--1-1-0-0----
|----------------------------------------------------------4-5
|-------------------------------------------------------------
|-------------------------------------------------------------
|-------------------------------------------------------------
|-------------------------------------------------------------


Ce serait plutot :
|-----5-6-5-4-5-6-5--5-6-5-9-5-5-3--3-5-3-0-3-3-1--1-1-0-0----
|----------------------------------------------------------2-3
|-------------------------------------------------------------
|-------------------------------------------------------------
|-------------------------------------------------------------
|-------------------------------------------------------------

=)


Inconnu...

Inconnu...

le 29/09/2009 19:57:26

moi je ne pense pas que se soit sa le début du 1er paragraphe
normalement c'est:

--7-8-7-6-7-8-7--7-8-7-12-7-7-5--5-7-5-5-2-3
--------------------------------------------
--------------------------------------------
--------------------------------------------
--------------------------------------------
--------------------------------------------

etc...

mais bon c'est a peut prés la même chose.

a++


akonvig

akonvig

le 31/07/2009 00:43:38

en premier c'est pas 9 c'est 10 mai a part sa le reste est bon


oublard06

oublard06

le 23/07/2009 19:04:02

Toute à fait sa :)


Inconnu...

Inconnu...

le 19/03/2009 12:20:29

cool


tablature charlie chaplin tv

Cette Tablature charlie chaplin de tv est la création ou l'interprétation personnelle de l'artiste qui l'a déposé.
Conformément aux dispositions du Code de la Propriété Intellectuelle, seule l'utilisation de cette représentation pour un usage privé, réduite au cercle de famille, et la reproduction (impression, téléchargement) pour un usage strictement personnel, sont autorisés.
Rappel : Pour se conformer aux lois sur la propriété intellectuelle, les paroles de chansons ne sont pas autorisées sur Partoch.com. Retour aux Tablatures de tv.