ARENA TINA

Tablature la masque de zorro

Tina Arena
Variétés
Ajouter à mes artistes favoris
Format : Tablature La masque de zorro, Tina arena
Version #3054449 mise en tablature par juni88
Difficulté : 2/10
Note : 3/5 sur 6 avis

Tablature La masque de zorro, Tina arena

---------------------------5-7-8-8-7-5-7-0------------------------------ ---------------5-7-8-5-7-8-------------------------------------------- ---5-7-8-5-7-8-------------------------------------------------------- -------------------------------------------------------------- -------------------------------------------------------------

Note cette tablature :

L'autre tablature disponible pour ce titre :

  • Pour Guitare :
  • Tablature Le Masque De Zorro
  • << Retour aux tablatures de tina arena

    101 Australian Songs For Easy Guitar (partition)

    101 Australian Songs For Easy Guitar (Partition)
    Type : Partition
    Edition Wise Publications

    36,70 €



    Connecte toi pour déposer un commentaire sur cette tablature !

    Vos avis sur la tablature la masque de zorro de tina arena #3054449


    thibo1er

    thibo1er

    le 05/01/2012 08:51:33

    Bien !


    laokon

    laokon

    le 03/06/2010 00:50:13

    Perso je trouve que ça sonne un poil mieux comme suit à cause des notes sur les differentes cordes:

    Gamme d'ouverture:

    7-------------
    --10-8-7------
    ---------9-8--
    --------------
    --------------
    --------------


    Couplet:

    ----------------------------6-8-9--6-8-9--8-6-8-(8)-3-----
    --------------6-8-9--6-8-9--------------------------------
    5-7-8--5-7-8----------------------------------------------
    ----------------------------------------------------------
    ----------------------------------------------------------
    ----------------------------------------------------------


    Pour voir si la suite de notes est correcte / sonne bien essayez ceci svp:


    ----------------------------------------------------------
    -----------6----------------------------------------------
    5-7-8--5-7---8--------------------------------------------
    ----------------------------------------------------------
    ----------------------------------------------------------
    ----------------------------------------------------------

    par rapport à:

    ----------------------------------------------------------
    -----------5----------------------------------------------
    5-7-8--5-7---8--------------------------------------------
    ----------------------------------------------------------
    ----------------------------------------------------------
    ----------------------------------------------------------

    J'ai pas mon tableau sous la main pour la note représentée à chaque frète de chaque corde, mais ça se trouve facilement je pense.


    Inconnu...

    Inconnu...

    le 09/11/2008 19:35:47

    bien


    Inconnu...

    Inconnu...

    le 13/10/2008 17:46:05

    Il manque la fin =( Sinon c'est super !


    Inconnu...

    Inconnu...

    le 14/06/2008 14:35:27

    Bien mais dommage qu'il manque un petit bou


    tablature la masque de zorro tina arena

    Cette Tablature la masque de zorro de tina arena est la création ou l'interprétation personnelle de l'artiste qui l'a déposé.
    Conformément aux dispositions du Code de la Propriété Intellectuelle, seule l'utilisation de cette représentation pour un usage privé, réduite au cercle de famille, et la reproduction (impression, téléchargement) pour un usage strictement personnel, sont autorisés.
    Rappel : Pour se conformer aux lois sur la propriété intellectuelle, les paroles de chansons ne sont pas autorisées sur Partoch.com. Retour aux Tablatures de tina arena.