THE SERVANT

Tablature orchestra

The Servant
Pop/Rock
Ajouter à mes artistes favoris
Format : Tablature et Grille d'accords Orchestra, The servant
Version #2808955 mise en tablature par chimwie
Difficulté : 8/10
Note : 2/5 sur 8 avis

Tablature et Grille d'accords Orchestra, The servant

****************************************** The Servant Orchestra tab par littletitus 6/04/04 ****************************************** Accords Dm [x57765] [x02220] [6x776x] [320033] [x35553] [x24432] [5x555x] [x00232] [x13331] [4567xx] [3x333x] [13x013] [x02230] Verse 1 Dm Bbmaj7 C Am7 Bb Gm7 Asus4 A Dm Bbmaj7 C Am7 Bb Gm7 Asus4 A Chorus 1 (idem verse 1) Bridge 1 A G Bm G Bm G Bm D Bm G#b5 G F6/9 Verse 2 Chorus 2 Verse 3 Chorus 1 Bridge x2

Note cette tablature :



Connecte toi pour déposer un commentaire sur cette tablature !

Vos avis sur la tablature Orchestra de the servant #2808955


lucas-heart

lucas-heart

le 07/05/2008 17:52:57

coooooooool


jedijules

jedijules

le 14/03/2007 21:56:02

cool la tab


Inconnu...

Inconnu...

le 01/11/2006 12:39:40

tab simpa


Inconnu...

Inconnu...

le 18/07/2005 20:23:31

yeah merci a vs 2


Inconnu...

Inconnu...

le 11/04/2005 21:58:56

Sympa la tab, et pour ceux qui voudrait se la jouer "pro", voici l'arpege du debut et du couplet:

E||------------------------|------------------------|------------------------|
B||--------3--------3------|--------3--------3------|--------3--------3------|
G||-----2--------2---------|-----2--------2---------|-----2--------2---------|
D||--0--------0------------|------------------------|------------------------|
A||------------------------|--1--------1------------|--3--------3------------|
E||------------------------|------------------------|------------------------|



------------------------|------------------------|------------------------|
--------3--------3------|--------3--------3------|--------3--------3------|
-----2--------2---------|-----2--------2---------|-----2--------2---------|
------------------------|------------------------|------------------------|
--0--------0------------|--1--------1------------|------------------------|
------------------------|------------------------|--3--------3------------|



--------------------------|--------------------------||
-----3--------3--------3--|-----2--------2--------2--||
--------2--------2--------|--------2--------2--------||
--------------------------|--------------------------||
--0--------0--------0-----|--0--------0--------0-----||
--------------------------|--------------------------||

ecoutez le titre pour le tempo, c'est assez simple a jouer... Have Fun!


in_muse_we_trust

in_muse_we_trust

le 08/04/2005 21:36:01

merci, elle est assez rare sur le net !


Inconnu...

Inconnu...

le 01/01/2004 00:00:00

merci d'avoir mi cette chanson, depui le tps que je la cherche, jlm trop et pi ce mec a une voi trop belle !! mci encore !!!!


Inconnu...

Inconnu...

le 01/01/2004 00:00:00

c'est la classe d'avoir mis une partoche de "the servant".Je te connais pas mais tu dois etre un mec cool!


tablature Orchestra the servant

Cette Tablature et Grille d'accords Orchestra de the servant est la création ou l'interprétation personnelle de l'artiste qui l'a déposé.
Conformément aux dispositions du Code de la Propriété Intellectuelle, seule l'utilisation de cette représentation pour un usage privé, réduite au cercle de famille, et la reproduction (impression, téléchargement) pour un usage strictement personnel, sont autorisés.
Rappel : Pour se conformer aux lois sur la propriété intellectuelle, les paroles de chansons ne sont pas autorisées sur Partoch.com. Retour aux Tablatures de the servant.