SAEZ

Tablature dis moi qui sont ces gens

Saez
Pop/Rock
Ajouter à mes artistes favoris
Format : Grille d'accords Dis-moi qui sont ces gens, Saez
Version #3070722 mise en tablature par mathou13
Difficulté : 2/10
Note : 4/5 sur 3 avis

Grille d'accords Dis-moi qui sont ces gens, Saez

C'est ma première tab, mais ça sonne bien... il y a 3 accords Dm Am E Il faut jouer un accord par phrase et ça colle Voilou bonne gratte... Si vous avez des remarques, hésitez pas!

Note cette tablature :



Connecte toi pour déposer un commentaire sur cette tablature !

Vos avis sur la tablature Dis-moi qui sont ces gens de saez #3070722


peterpankingdom

peterpankingdom

le 13/11/2009 12:45:09

Dm : x00231

Am : 002210

E : 022100





Intro et Couplet :

|-------------------------------------------------------------------------------------------------------|

|----3------3---3------3-----1------1----1-------1----0------0----0------0-----1-------1-----1-------1--|

|----2--2-------2--2---------2--2--------2--2---------1--1--------1--1---------2--2----------2--2-------|

|-0-------0---0------0----0-------2----2-------2---2-------2----2------2----2--------2----2--------2----|

|-------------------------------------------------------------------------------------------------------|

|-------------------------------------------------------------------------------------------------------|X9

Dis-moi qui sont ces gens…

… Quand eux, ils ont la lune.



Pont :

|---------0-----1--1----1-----3-1-0-----------------------------------------------0---------------------|

|---1--3--------3-------3-----3-3--------1---1---1----3--1-0--------0----0---0------3--3--1-------1-----|

|----------------------------------------2---2---2----2--2----------1----1---1----------------2---------|

|-2----------0--------0----0-------------------2----2----------------------2---2----------------2-------|

|-------------------------------------0--------------------------2--------------------------------------|

|-------------------------------------------------------------------------------------------------------|X1



|---------0---|

|---1--3------|

|-------------|

|-2-----------|

|-------------|

|-------------|



Couplet :

|---------------------------------------------------------------------------------------------------------|

|----3------3---3------3-----1------1----1-------1----0------0----0------0-----1-------1-----1-------1----|

|----2--2-------2--2---------2--2--------2--2---------1--1--------1--1---------2--2----------2--2---------|

|-0-------0---0------0----0-------2----2-------2---2-------2----2------2----2--------2----2--------2------|

|---------------------------------------------------------------------------------------------------------|

|---------------------------------------------------------------------------------------------------------|X4

Dis-moi qui sont ces gens…

… Nous renvoient nos messages



Pont :

|---------0-----1--1----1-----3-1-0-----------------------------------------------0-----------------------|

|---1--3--------3-------3-----3-3--------1---1---1----3--1-0--------0----0---0------3--3--1-------1-------|

|----------------------------------------2---2---2----2--2----------1----1---1----------------2-----------|

|-2----------0--------0----0-------------------2----2----------------------2---2----------------2---------|

|-------------------------------------0--------------------------2----------------------------------------|

|---------------------------------------------------------------------------------------------------------|X1



|---------0-----1--1----1-----3-1-0-----------------------------------------------------------------------|

|---1--3--------3-------3-----3-3--------1---1---1----3--1-0--------------------------------1---1---1---1-|

|----------------------------------------2---2---2----2--2----------1----1---1---2-2-2------2---2---2---2-|

|-2----------0--------0----0-------------------2----2---------------2----2---2---2-2-2------------2---2---|

|-------------------------------------0--------------------------2---------2---2----------0---------------|

|---------------------------------------------------------------------------------------------------------|X1



|---------|

|--1---1--|

|--2---2--|

|----2----|

|---------|

|---------|X1



Couplet :

|--------------------------------------------------------------------------------------------------------|

|----3------3---3------3-----1------1----1-------1----0------0----0------0-----1-------1-----1-------1---|

|----2--2-------2--2---------2--2--------2--2---------1--1--------1--1---------2--2----------2--2--------|

|-0-------0---0------0----0-------2----2-------2---2-------2----2------2----2--------2----2--------2-----|

|--------------------------------------------------------------------------------------------------------|

|--------------------------------------------------------------------------------------------------------|X1

… Dis-moi qui sont ces gens qui rient comme des enfants…



|--------------------------------------------------------------------------------------------------------|

|----3------3---3------3-----1------1----1-------1-----------------------------1-------1-----1-------1---|

|----2--2-------2--2---------2--2--------2--2---------1------1----1------1-----2--2----------2--2--------|

|-0-------0---0------0----0-------2----2-------2---2--2--2--------2--2---------------2----2--------2-----|

|----------------------------------------------------------2----2------2----2----------------------------|

|--------------------------------------------------------------------------------------------------------|X4

… Celle des Roméo...

… De leurs yeux magnifiques?



Final :

|---------0-----1--1----1-----3-1-0-----------------------------------------------0-----------------------|

|---1--3--------3-------3-----3-3-0------1---1---1----3--1-0--------0----0---0------3--3--1-------1-------|

|----------------------------------------2---2---2----2--2----------1----1---1----------------2-----------|

|-2----------0--------0----0-------------------2----2----------------------2---2----------------2---------|

|-------------------------------------0--------------------------2----------------------------------------|

|---------------------------------------------------------------------------------------------------------|X1



|--------0----------------0-------------------------------------------------------------------------------|

|---1--3-------3--3---3-----3--1----1--1---1---3-1-0------------------------------------1-----------------|

|--------------2--2---2-------------2--2---2---2-2-2----1--1---1-----1--1---1----1--2---2-----------------|

|-2----------0------0---0----------------2---2----------2--2---2-----2--2---2----2--2---------------------|

|---------------------------------0-------------------2------2---2--------2---2---------------------------|

|---------------------------------------------------------------------------------------------------------|


boby666

boby666

le 21/06/2009 16:33:23

Moi j'ai juste l'impression qu'il manque quelque chose à la fin de la 3ieme phrase, c'est peut être qu'une impression.


disci

disci

le 01/03/2009 11:18:59

C'est ça


tablature Dis-moi qui sont ces gens saez

Cette Grille d'accords Dis-moi qui sont ces gens de saez est la création ou l'interprétation personnelle de l'artiste qui l'a déposé.
Conformément aux dispositions du Code de la Propriété Intellectuelle, seule l'utilisation de cette représentation pour un usage privé, réduite au cercle de famille, et la reproduction (impression, téléchargement) pour un usage strictement personnel, sont autorisés.
Rappel : Pour se conformer aux lois sur la propriété intellectuelle, les paroles de chansons ne sont pas autorisées sur Partoch.com. Retour aux Tablatures de saez.