RED HOT CHILI PEPPERS

Tablature otherside

Red Hot Chili Peppers
Alternative
Ajouter à mes artistes favoris
Format : Tablature Otherside, Red hot chili peppers
Version #3049867 mise en tablature par yoyo guitare
Difficulté : 3/10
Note : 2/5 sur 14 avis

Tablature Otherside, Red hot chili peppers

-------------------------------------------------------------- -------------------------------------------------------------- ------------6------------------------6------------------------ --------9-9---9-7----------------9-9---9-7-------------------- --9-9-9-----------9-7-7-7--9-9-9-----------9-7-7-7------------ -------------------------------------------------------------- voila c'est ma premiére tablature , dites moi ce que vous en dites. bonne gratte!!!

Note cette tablature :



Connecte toi pour déposer un commentaire sur cette tablature !

Vos avis sur la tablature otherside de red hot chili peppers #3049867


Inconnu...

Inconnu...

le 07/07/2008 22:49:21

S=slide en effet , en gros tu fais les deux notes en glissant sur la corde quoi... :) Sinon j'aime bien la tablature de lamia , c'est la plus précise mais pas la plus facile


l

l'archange noire

le 25/03/2008 10:47:16

je crois que c'est un slide ><


marlo0u

marlo0u

le 08/02/2008 20:53:33

boo a mon avis fote de tape ou alrs aucune idéé xD


crazyleo

crazyleo

le 06/02/2008 16:06:18

eu oui sa ve dire quoi le s


Inconnu...

Inconnu...

le 30/01/2008 19:03:58

moi je trouve qu'elle sont toute bien vos tablatures bien que la deuxième de foufleouf soit très moyenne!!!!!!!!!!!!!!!!!!!!!!


rammstein1992

rammstein1992

le 12/01/2008 23:32:49

se qui es plus simple nes pas forcemen mieu moi je joue avec le 7iém comme seux dans o


marlo0u

marlo0u

le 02/01/2008 19:33:05

moi je dirai comme ça
c'est bien plus simple et c'est just =D

------------------------------------
------------------------------------
-------2-2-4-2-0-------------------------
-2-2-2-----------2-2-2-0-0-0-----------------
------------------------------------
------------------------------------


Et ça continue


Inconnu...

Inconnu...

le 09/11/2007 20:44:10

merci les gas


Inconnu...

Inconnu...

le 07/10/2007 10:03:28

sa signifie quoi le "s"


Inconnu...

Inconnu...

le 20/08/2007 17:25:50

ba non effectivement c'est pas cette tablature mais on peut aussi la jouée comme ça voila c'est laquelle ::

----------------------------------------------------
----------------------------------------------------
-------2-2-4s2-0-----------------2-2-4s2-0----------
-2-2-2----------2-2-0-0-0--2-2-2-----------2-2-0-0-0
----------------------------------------------------
----------------------------------------------------

voila moi je la verais plutôt comme ça après à toi de voir sinon c'est bien pour une premiere :)


Inconnu...

Inconnu...

le 01/07/2007 20:54:16

j ai ecoute la music ce n est pas ça


siid

siid

le 18/02/2007 01:45:41

pas mal yoyo ^^


max250

max250

le 11/11/2006 15:48:01

ya encore plus simple


------------------------------------
------------------------------------
------------------------------------
----------7-7--9--7--5--------------
--7-7-7------------------7--5-5-5-7-
------------------------------------


foufleouf

foufleouf

le 04/09/2006 20:53:31

--------------------------------
---------------------------------
-----------------------------------
-----------7--7--9--7----------------
--7--7--7--------------10--7--5--5--5-------
------------------------------------
voila normalement c'est plutot ça bonne gratte wink flo


otherside

Album : Platinum Collection

plus de tablatures de cet album

Red Hot Chili Peppers: Best Of

Red Hot Chili Peppers: Best Of
Type : Partition
Edition HAL

19,10 €

tablature otherside red hot chili peppers

Cette Tablature otherside de red hot chili peppers est la création ou l'interprétation personnelle de l'artiste qui l'a déposé.
Conformément aux dispositions du Code de la Propriété Intellectuelle, seule l'utilisation de cette représentation pour un usage privé, réduite au cercle de famille, et la reproduction (impression, téléchargement) pour un usage strictement personnel, sont autorisés.
Rappel : Pour se conformer aux lois sur la propriété intellectuelle, les paroles de chansons ne sont pas autorisées sur Partoch.com. Retour aux Tablatures de red hot chili peppers.