RED HOT CHILI PEPPERS

Tablature otherside

Red Hot Chili Peppers
Alternative
Ajouter à mes artistes favoris
Format : Tablature Otherside, Red hot chili peppers
Version #3049077 mise en tablature par kaiser
Difficulté : 2/10
Note : 3/5 sur 7 avis

Tablature Otherside, Red hot chili peppers

J'ai fais celle là aussi à l'oreille... ------------------------------ ------------------------------ --------5-5-5-7-5------------- --5-5-5-----------6-5----3-3-3 ------------------------------

Note cette tablature :



Connecte toi pour déposer un commentaire sur cette tablature !

Vos avis sur la tablature Otherside de red hot chili peppers #3049077


Inconnu...

Inconnu...

le 23/07/2008 17:51:17

JE SUIS QU'UNE DéBUTANTE ET J'ADORE SE MORCEAU DONC MERCI POUR LA TABLATURE ET EN PLU ELLE EST FACILE


usually-myself

usually-myself

le 23/05/2008 22:25:44

celle de winx xhloe s'approche plus.


Inconnu...

Inconnu...

le 23/05/2008 20:47:18

archi faux c'est nimp !!!


sorian

sorian

le 15/05/2008 15:19:21

Merci Kaiser pour la tablature je commence à comprendre ! Très bonne qualité bonne continuation wink


Inconnu...

Inconnu...

le 07/05/2008 14:17:39

e---------------------------------------------------------
B---------------------------------------------------------
G--------------2---2---4-2-0------------------------------
D--2---2---2-------------------2------0---0---0-----------
A---------------------------------------------------------
E---------------------------------------------------------


e---------------------------------------------------------
B---------------------------------------------------------
G--------------2---2---4-2-0------------------------------
D--2---2---2-------------------2---2--2-2---0---0---0-----
A---------------------------------------------------------
E---------------------------------------------------------


e---------------------------------------------------------
B---------------------------------------------------------
G--------------2---2---4-2-0------------------------------
D--2---2---2-------------------2---2--2-2---0---0---0-----
A---------------------------------------------------------
E---------------------------------------------------------


e---------------------------------------------------------
B---------------------------------------------------------
G--------------2---2---2--9---9---9----------------------
D--2---2---2---------------------------9---9---9----------
A---------------------------------------------------------
E---------------------------------------------------------


Otherside

Album : Platinum Collection

plus de tablatures de cet album

Red Hot Chili Peppers: Best Of

Red Hot Chili Peppers: Best Of
Type : Partition
Edition HAL

19,10 €

tablature Otherside red hot chili peppers

Cette Tablature Otherside de red hot chili peppers est la création ou l'interprétation personnelle de l'artiste qui l'a déposé.
Conformément aux dispositions du Code de la Propriété Intellectuelle, seule l'utilisation de cette représentation pour un usage privé, réduite au cercle de famille, et la reproduction (impression, téléchargement) pour un usage strictement personnel, sont autorisés.
Rappel : Pour se conformer aux lois sur la propriété intellectuelle, les paroles de chansons ne sont pas autorisées sur Partoch.com. Retour aux Tablatures de red hot chili peppers.