PITT MICHAEL

Tablature death to birth

Pitt Michael
Pop/Rock
Ajouter à mes artistes favoris
Format : Tablature Death to birth, Pitt michael
Version #3031667 mise en tablature par nirvana-france
Difficulté : 4/10
Note : 4/5 sur 16 avis

Tablature Death to birth, Pitt michael

intro : --------------------------------------------------------------1-(0)---- ----------1------------1-----------0-----------0--------------1--0----- --------2----2-------2---2-------1---1-------1---2--------------------- ------2--------2---2-------2---2-------2---2-------2-------2----------- ----0------------0-----------2-----------2-----------1---3------------- -------------------------------------------------------1--------------- --------3--------------0-0--0------------0-0-0------------------------- --------3--------------1-1--0------------0-0-0------------------------- -----------4-0------2--2-2--0--------1---1-1-0------------------------- -----5------------2----2-2--0------2-----2-2-0------------------------- ---5------------0------0-0--0----2-------2-2-0------------------------- -3------3--------------0-0--0------------0-0-0-------------------------

Note cette tablature :



Connecte toi pour déposer un commentaire sur cette tablature !

Vos avis sur la tablature Death to birth de pitt michael #3031667


Inconnu...

Inconnu...

le 01/05/2007 14:32:40

trés belle chanson pour un grand musicien...


Inconnu...

Inconnu...

le 30/03/2007 15:25:41

aprés des mois de recherche c'est trouvé youhou merci ell est vraiment bien magnifique a jouer est vraiment pas dur à apprendre il faut juste suivre le rythme puis on s'emballe on s'emporte c'est la fete et on casse tout !!! merci encore!!


Inconnu...

Inconnu...

le 11/06/2006 18:22:23

Oué trop, ça donne bien le son et tout j'adore elle est extra yeah


Inconnu...

Inconnu...

le 05/06/2006 23:05:44

super tablatur thx !!


nodiésop

nodiésop

le 14/05/2006 01:13:20

écoutez en jouant de la gratte la chanson,vous verrez qu'il faut mettre le capot en 1,sinon ça sonne faux.A part ça,la tablature est très bien!


Inconnu...

Inconnu...

le 26/02/2006 18:26:39

Un grand moment.


cacahuetesanchez

cacahuetesanchez

le 13/02/2006 18:02:03

je te redonne ce que j'ai trouvé pour un accordage standard...
A#m
F
F#
G#
je suis pas sur des noms des accords... mais ça devrait être ça en gros


cacahuetesanchez

cacahuetesanchez

le 13/02/2006 17:33:43

elle est fausse ta tablature...enfin je crois tout le long de la chanson il y a des accords barrés...mais je n'en suis pas sur du tout


Inconnu...

Inconnu...

le 02/02/2006 20:59:16

magnifique...


Inconnu...

Inconnu...

le 24/11/2005 19:17:29

Voici le moment où il s'énerve :



--0----------0--------0-|
--1----1-1-1-1------1-1-|
--2--2-2-2-2-2--2-2-2-2-|
--2--2-2-2-2-2--2-2-2-2-|
--0--0-0-0-0-0--0-0-0-0-|
------------------------|



--0----------0----------|------------------------|-------------3----------|
--0--x-x-x-0-0------0-0-|--1--x-x-x-1-1--x-x-1-1-|--0------0-0-0------0-0-|
--1--1-1-1-1-1--1-1-1-1-|--2--2-2-2-2-2--2-2-2-2-|--0--0-0-0-0-0--0-0-0-0-|
--2--2-2-2-2-2--2-2-2-2-|--3--3-3-3-3-3--3-3-3-3-|--0--0-0-0-0-0--0-0-0-0-|
--2--2-2-2-2-2--2-2-2-2-|--3--3-3-3-3-3--3-3-3-3-|--2--2-2-2-2-2--2-2-2-2-|
--0--0-0-0-0-0--0-0-0-0-|--1--1-1-1-1-1--1-1-1-1-|--3--3-3-3-3-3--3-3-3-3-|



--0----------0--------0-|--0----------0----------|------------------------|
--1----1-1-1-1------1-1-|--0--x-x-x-0-0------0-0-|--1--x-x-x-1-1--x-x-1-1-|
--2--2-2-2-2-2--2-2-2-2-|--1--1-1-1-1-1--1-1-1-1-|--2--2-2-2-2-2--2-2-2-2-|
--2--2-2-2-2-2--2-2-2-2-|--2--2-2-2-2-2--2-2-2-2-|--3--3-3-3-3-3--3-3-3-3-|
--0--0-0-0-0-0--0-0-0-0-|--2--2-2-2-2-2--2-2-2-2-|--3--3-3-3-3-3--3-3-3-3-|
------------------------|--0--0-0-0-0-0--0-0-0-0-|--1--1-1-1-1-1--1-1-1-1-|



-------------3----------|--0----------0--------0-|--0----------0----------|
--0------0-0-0------0-0-|--1----1-1-1-1------1-1-|--0--x-x-x-0-0------0-0-|
--0--0-0-0-0-0--0-0-0-0-|--2--2-2-2-2-2--2-2-2-2-|--1--1-1-1-1-1--1-1-1-1-|
--0--0-0-0-0-0--0-0-0-0-|--2--2-2-2-2-2--2-2-2-2-|--2--2-2-2-2-2--2-2-2-2-|
--2--2-2-2-2-2--2-2-2-2-|--0--0-0-0-0-0--0-0-0-0-|--2--2-2-2-2-2--2-2-2-2-|
--3--3-3-3-3-3--3-3-3-3-|------------------------|--0--0-0-0-0-0--0-0-0-0-|



------------------------|-------------3----------|--0----------0--------0-|
--1--x-x-x-1-1--x-x-1-1-|--0------0-0-0------0-0-|--1----1-1-1-1------1-1-|
--2--2-2-2-2-2--2-2-2-2-|--0--0-0-0-0-0--0-0-0-0-|--2--2-2-2-2-2--2-2-2-2-|
--3--3-3-3-3-3--3-3-3-3-|--0--0-0-0-0-0--0-0-0-0-|--2--2-2-2-2-2--2-2-2-2-|
--3--3-3-3-3-3--3-3-3-3-|--2--2-2-2-2-2--2-2-2-2-|--0--0-0-0-0-0--0-0-0-0-|
--1--1-1-1-1-1--1-1-1-1-|--3--3-3-3-3-3--3-3-3-3-|------------------------|



--0----------0----------|--------------------|--3------------|--------------||
--0--x-x-x-0-0------0-0-|--x-----x--1---x-x--|--0------------|--------------||
--1--1-1-1-1-1--1-1-1-1-|--2---2-2--2---2-2--|--0------------|--------------||
--2--2-2-2-2-2--2-2-2-2-|--3---3-3--3---3-3--|--0------------|--------------||
--2--2-2-2-2-2--2-2-2-2-|--3---3-3--3---3-3--|--2------------|--------------||
--0--0-0-0-0-0--0-0-0-0-|--1---1-1--1---1-1--|--3------------|--------------||



Inconnu...

Inconnu...

le 08/11/2005 19:40:38

bravo mais il manque pas un moment ?
celui où il s'énerve ?! :p ^^


Inconnu...

Inconnu...

le 03/11/2005 20:11:27

oui elle est pas mal merci


Inconnu...

Inconnu...

le 08/09/2005 20:30:59

super ell est super bien mercii


tablature Death to birth pitt michael

Cette Tablature Death to birth de pitt michael est la création ou l'interprétation personnelle de l'artiste qui l'a déposé.
Conformément aux dispositions du Code de la Propriété Intellectuelle, seule l'utilisation de cette représentation pour un usage privé, réduite au cercle de famille, et la reproduction (impression, téléchargement) pour un usage strictement personnel, sont autorisés.
Rappel : Pour se conformer aux lois sur la propriété intellectuelle, les paroles de chansons ne sont pas autorisées sur Partoch.com. Retour aux Tablatures de pitt michael.