MANSON MARILYN

Tablature sweet dreams

Marilyn Manson
Pop/Rock
Ajouter à mes artistes favoris
Format : Tablature Sweet dreams, Marilyn manson
Version #3058702 mise en tablature par keke22
Difficulté : 1/10
Note : 3/5 sur 15 avis

Tablature Sweet dreams, Marilyn manson

---------------------------------- ---------------------------------- -0-0-7-0-8-0-7-0------2-3-----2-3- -----------------1-1------0-0----- ---------------------------------- ----------------------------------

Note cette tablature :



Connecte toi pour déposer un commentaire sur cette tablature !

Vos avis sur la tablature Sweet Dreams de marilyn manson #3058702


ryut

ryut

le 25/05/2008 19:05:05

tu sai ces plus grave


Inconnu...

Inconnu...

le 19/01/2008 18:23:30

Moi je trouve que C aps trop Mal
Je Débute seulement
Et j"ad0re cette Chanson


Inconnu...

Inconnu...

le 11/01/2008 19:31:47

moi je sui pluto daccor avec dark-punk39


Inconnu...

Inconnu...

le 28/11/2007 09:53:26

b(ien)


Inconnu...

Inconnu...

le 24/09/2007 16:13:28

essayer plutot ça :

--------------------------
--------------------------
--------------------------
---5-6-5------------------
-33-3-3-3---68---56-------
---------4-4---33---------


evangelion-007

evangelion-007

le 26/08/2007 15:29:01

Je suis pas daccord avec ça endesaccord3
ca serais plus :

--------------------------
--------------------------
--------------------------
---2-3-2-----0------------
-00-0-0-0---3------3--2---
---------1-1---0-0--------


Inconnu...

Inconnu...

le 11/08/2007 15:11:42

comment sa se lis sa


Inconnu...

Inconnu...

le 20/06/2007 22:06:54

.


Inconnu...

Inconnu...

le 20/06/2007 22:06:42


.


Inconnu...

Inconnu...

le 20/06/2007 22:06:14

yeah !


Inconnu...

Inconnu...

le 16/06/2007 14:15:30

c'est trop nul XD jdeconne joré preferé plu grave comme lesprit de manson ^^


tablature Sweet Dreams marilyn manson

Cette Tablature Sweet Dreams de marilyn manson est la création ou l'interprétation personnelle de l'artiste qui l'a déposé.
Conformément aux dispositions du Code de la Propriété Intellectuelle, seule l'utilisation de cette représentation pour un usage privé, réduite au cercle de famille, et la reproduction (impression, téléchargement) pour un usage strictement personnel, sont autorisés.
Rappel : Pour se conformer aux lois sur la propriété intellectuelle, les paroles de chansons ne sont pas autorisées sur Partoch.com. Retour aux Tablatures de marilyn manson.