MANSON MARILYN

Tablature sweet dreams

Marilyn Manson
Pop/Rock
Ajouter à mes artistes favoris
Format : Tablature et Grille d'accords Sweet dreams, Marilyn manson
Version #3050180 mise en tablature par tuture
Difficulté : 5/10
Note : 2/5 sur 6 avis

Tablature et Grille d'accords Sweet dreams, Marilyn manson

SWEET DREEMS de MARILYN MANSON ---------------------------------------- voila é ensuite vous continué comme ca! ---------------------------------------- c vachemen simple! ---------------------------------------- --------2---3---2----------------------- ---0--0---0---0--------2--3------2--3--- ------------------1--1------0--0--------

Note cette tablature :



Connecte toi pour déposer un commentaire sur cette tablature !

Vos avis sur la tablature sweet dreams de marilyn manson #3050180


Inconnu...

Inconnu...

le 04/09/2010 12:09:28

-----------------------------
-----------------------------
-----------------------------
------5-6-5------------------
---3-3-3-3-3----6/8-----5/6--
-------------4-4----3-3------

sa c'est la vrai


Inconnu...

Inconnu...

le 08/06/2010 00:57:24


----------------------------------------
----------------------------------------
----------------------------------------
--------2---3---2-----------------------
---0--0---0---0--------68--------56-----
------------------4--4------3--3--------


Inconnu...

Inconnu...

le 14/11/2008 21:56:33

t'a faut a ta fasson c:
------------------------------------------------
------------------------------------------------
------------------------------------------------
--------2---3---2-------------------------------
---0--0---0---0---0-------2--3------3--2--------
---------------------1--1------0--0-------------
ou alor:
------------------------------------------------
------------------------------------------------
------------------------------------------------
-------------------------------0----------------
--------7---8---7-----------3-----------3--2----
---5--5---5---5---5----1--1-------0--0----------


tablature sweet dreams marilyn manson

Cette Tablature et Grille d'accords sweet dreams de marilyn manson est la création ou l'interprétation personnelle de l'artiste qui l'a déposé.
Conformément aux dispositions du Code de la Propriété Intellectuelle, seule l'utilisation de cette représentation pour un usage privé, réduite au cercle de famille, et la reproduction (impression, téléchargement) pour un usage strictement personnel, sont autorisés.
Rappel : Pour se conformer aux lois sur la propriété intellectuelle, les paroles de chansons ne sont pas autorisées sur Partoch.com. Retour aux Tablatures de marilyn manson.