K MADEMOISELLE

Tablature jouer dehors

Mademoiselle K
Pop/Rock
Ajouter à mes artistes favoris
Format : Tablature Jouer dehors, Mademoiselle k
Version #3084640 mise en tablature par manon1991
Difficulté : 4/10
Note : 4/5 sur 5 avis

Tablature Jouer dehors, Mademoiselle k

|-----------------|--------------------|--------------------|--------------------|--------------------| |-----------------|--------------------|-----------6--5-----|--------5--6--5-----|--------5--8--6--5--| |--4--5--7--5--4--|-----4--5--7--5--4--|-----4--5--------7--|--5--7-----------7--|--5--7--------------| |-----------------|--7-----------------|--7-----------------|--------------------|--------------------| |-----------------|--------------------|--------------------|--------------------|--------------------| |-----------------|--------------------|--------------------|--------------------|--------------------| |-----------------|--------------------|--------------------| |-----5--6--6-----|--------5--6--5-----|--------5-----------| |--7-----------7--|--5--7-----------7--|--5--7-----7--------| |-----------------|--------------------|--------------------| |-----------------|--------------------|--------------------| |-----------------|--------------------|--------------------| voilà, c'est le première que je fais, j'espère qu'il n'y a pas trop d'erreurs et que ça va vous plaire!

Note cette tablature :



Connecte toi pour déposer un commentaire sur cette tablature !

Vos avis sur la tablature Jouer dehors de mademoiselle k #3084640


Inconnu...

Inconnu...

le 22/07/2011 15:26:56

J'aime =)


Inconnu...

Inconnu...

le 19/04/2011 19:34:23

Pas mal ! :)


davidnet2

davidnet2

le 10/02/2011 20:27:19

je pense que a un momment il manque une note smile

|-----------------|--------------------|--------------------|--------------------|--------------------|
|-----------------|--------------------|-----------6--5-----|--------5--6--5-----|--------5--8--6--5--|
|--4--5--7--5--4--|-----4--5--7--5--4--|-----4--5--------7--|--5--7-----------7--|--5--7--------------|
|-----------------|--7-----------------|--7-----------------|--------------------|--------------------|
|-----------------|--------------------|--------------------|--------------------|--------------------|
|-----------------|--------------------|--------------------|--------------------|--------------------|

|-------------------|--------------------|--------------------|
|-----5--6--6--5----|--------5--6--5-----|--------5-----------|
|--7-------------7--|--5--7-----------7--|--5--7-----7--------|
|-------------------|--------------------|--------------------|
|-------------------|--------------------|--------------------|
|-------------------|--------------------|--------------------|



Jamais La Paix

Jamais la Paix
Type : Partition
Edition Beuscher

18,00 €

tablature Jouer dehors mademoiselle k

Cette Tablature Jouer dehors de mademoiselle k est la création ou l'interprétation personnelle de l'artiste qui l'a déposé.
Conformément aux dispositions du Code de la Propriété Intellectuelle, seule l'utilisation de cette représentation pour un usage privé, réduite au cercle de famille, et la reproduction (impression, téléchargement) pour un usage strictement personnel, sont autorisés.
Rappel : Pour se conformer aux lois sur la propriété intellectuelle, les paroles de chansons ne sont pas autorisées sur Partoch.com. Retour aux Tablatures de mademoiselle k.