LOUISE ATTAQUE

Tablature la ballade de basse

Louise Attaque
Variétés
Ajouter à mes artistes favoris
Format : Tablature La ballade de basse, Louise attaque
Version #3074829 mise en tablature par j18
Difficulté : 1/10
Note : 2/5 sur 2 avis

Tablature La ballade de basse, Louise attaque

C'est une adaptation pour guitare... Comme d'hab, trouvée "à l'oreille"... |--------------------- |--------------------- |--------------------- |----------------------- |--12----12--12--9----9--11--11--11--7--7----9-11-12----12--12--11---11---14---14--14----12--11--9-| |--0-----0---0---0----0--0---0---0---0--0----0-0--0-----0---0---0----0----0----0---0-----0---0---0-| répéter autant de fois qu'il faut.. puis : |-------- |-------- |-------- |--------- |-5---7--9-s11s9---5---7---9----------- |-0---0--0---------0---0---0----------- quand le morceau est monté en puissance, on peut faire ce dernier passage en "accord de puissance" : |-7---9--11-------------- |-7---9--11-------------- |-5---7--9--------------- ETC... |-0---0--0--------------- Voilà voilà, ...

Note cette tablature :

la ballade de basse

Album : Comme on a dit

plus de tablatures de cet albumVoir cet album



Connecte toi pour déposer un commentaire sur cette tablature !

Vos avis sur la tablature la ballade de basse de louise attaque #3074829


cicis29200

cicis29200

le 27/11/2013 16:38:29

mais nan c'est sa

-------
-------
-------
-------
--8--5--7--7--7--7--5--3--5--7--8--7--10--10--10--8--7--5--7--8 et on recommence et pour finir le morceau c'est
--8--5--7--7--7--7--5--3--5--7--8--7--10--10--10--8--7--5--3--5

voila wink


muleau

muleau

le 08/06/2011 16:17:24

Pour moi il faut plutôt faire ça:

Le riff

|---------------------
|---------------------
|---------------------
|-----------------------
|--8----7--5--5--5--3--2--0--2--3--8----7--10--10--10--8--7--5--7---------------|
|-------------------------------------------------------------------------------|

Et la montée en puissance commence comme ça:

|------------------------------------------|
|-------------------------------------------|
|-----7--------5--5--5------------------------------------|
|--7--7--7-^8-(0)(0)(0)------8--7--5--7------------------------|
|--5--5--5------------------(5)(5)(5)-5--------------------|
|-------------------------------------------------------------------------------|

Et après c'est le feeling qui fait le reste.



sylvainch

sylvainch

le 19/05/2010 11:45:31

En soit le riff principal est pas totallement faux, mais décaler de deux cases tout ce qui est fait sur la corde de sol et ça sonne beaucoup plus juste


A Plus Tard Crocodile

A Plus Tard Crocodile
Type : Partition
Edition CAR

25,20 €

tablature la ballade de basse louise attaque

Cette Tablature la ballade de basse de louise attaque est la création ou l'interprétation personnelle de l'artiste qui l'a déposé.
Conformément aux dispositions du Code de la Propriété Intellectuelle, seule l'utilisation de cette représentation pour un usage privé, réduite au cercle de famille, et la reproduction (impression, téléchargement) pour un usage strictement personnel, sont autorisés.
Rappel : Pour se conformer aux lois sur la propriété intellectuelle, les paroles de chansons ne sont pas autorisées sur Partoch.com. Retour aux Tablatures de louise attaque.