KRAVITZ LENNY

Tablature fly away

Lenny Kravitz
Pop/Rock
Ajouter à mes artistes favoris
Format : Tablature et Grille d'accords Fly away, Lenny kravitz
Version #3027464 mise en tablature par satriani17
Difficulté : 4/10
Note : 4/5 sur 4 avis

Tablature et Grille d'accords Fly away, Lenny kravitz

Lenny Kravitz : Fly away A : 577655 B : 799877 C : 81010988 G : 355433 D : x57775 Intro: (A B C G D) x3 A B C G D A B C G D A B C G D A B C G D (A B C G D) x4

Note cette tablature :



Connecte toi pour déposer un commentaire sur cette tablature !

Vos avis sur la tablature FLy away de lenny kravitz #3027464


x52g14r

x52g14r

le 10/03/2008 19:43:17

super merci


Inconnu...

Inconnu...

le 07/04/2007 17:03:27

pour moi se serai ça

----------------------------------------------------------------------------------
----------------------------------------------------------------------------------
--6-----6--6--6--x--8--x--9------9---9---9----------------4-----4--4--4-----------
--7-----7--7--7--x--9--x--10-----10--10--10---------------5-----5--5--5-----------
--7-----7--7--7--x--9--x--10-----10--10--10---------------5-----5--5--5-------------5-----5--5--5--x--7--x--8------8---8---8----------------3-----3--3--3-----------

----------------------------------------------------------------------------------
--7-----7--7--8-7----------------------------------------------------------------
--7-----7--7--7--7----------------------------------------------------------------
--7-----7--7--7--7----------------------------------------------------------------
--5-----5--5--5--5----------------------------------------------------------------
----------------------------------------------------------------------------------


Greatest Hits

Greatest Hits
Type : Partition
Edition Alfred Publishing

22,70 €

tablature FLy away lenny kravitz

Cette Tablature et Grille d'accords FLy away de lenny kravitz est la création ou l'interprétation personnelle de l'artiste qui l'a déposé.
Conformément aux dispositions du Code de la Propriété Intellectuelle, seule l'utilisation de cette représentation pour un usage privé, réduite au cercle de famille, et la reproduction (impression, téléchargement) pour un usage strictement personnel, sont autorisés.
Rappel : Pour se conformer aux lois sur la propriété intellectuelle, les paroles de chansons ne sont pas autorisées sur Partoch.com. Retour aux Tablatures de lenny kravitz.