KASHMIR

Tablature joyeux annivesaire

Kashmir
Pop/Rock
Ajouter à mes artistes favoris
Format : Tablature Joyeux annivesaire, Kashmir
Version #3038762 mise en tablature par math67
Difficulté : 1/10
Note : 3/5 sur 85 avis

Tablature Joyeux annivesaire, Kashmir

----------------------------| -0-0-2-0-5-4----------------| ----------------------------| ----------------------------| ----------------------------| ----------------------------|

Note cette tablature :



Connecte toi pour déposer un commentaire sur cette tablature !

Vos avis sur la tablature Joyeux annivesaire de kashmir #3038762


nomimoi

nomimoi

le 16/03/2010 10:23:34

merci pour la version de antoine du 59!! jsuis mega debutante et ça m'apprend a reperer mes frettes


mickoudin

mickoudin

le 13/10/2009 01:33:49



Moi je prefere ça :
0-0-2-0-5-4
0-0-2-5-0-4
0-0-12-9-5-4-2-2
10-10-9-5-7-5


Inconnu...

Inconnu...

le 01/09/2009 12:49:00

j'ai une version qui se joue que sur une corde .. celle de mi donc la premiere ou la derniere comme vous le préférez:

2-2-4-2-7-6--2-2-4-2-9-7--2-2-11-7-6-6-4-4-12-11-7-9-7


Inconnu...

Inconnu...

le 29/07/2009 12:06:15

La tab' de angesdelumiers et nikel!
Mais la tienne est trop courte, dommage.


canabis

canabis

le 16/06/2009 18:39:19

Mmmh moi j'ai trouvé un truc un peu plus simple peu être mais sa donne bien aussi x) .


-----------------------------4-0-------4-4-2-0-2-0
-0-0-2-0-5-4-0-0-2-0-7-5-0-0-----2-2-0------------
--------------------------------------------------
--------------------------------------------------
--------------------------------------------------
--------------------------------------------------



Bon jeu =) .


angedelumieres

angedelumieres

le 07/05/2009 20:07:39

----------------------------|
-0-0-2-0-5-4----------------|
----------------------------|
----------------------------|
----------------------------|
----------------------------|

Moi je préfère cette version, dites moi ce que vous en pensez!!!

0-0-2-0-5-4
0-0-2-0-7-5
0-0-12-9-5-4-2-2
10-10-9-5-7-5


Inconnu...

Inconnu...

le 30/04/2009 00:09:02

Ah ça tombe bien parce que demain C'est l'anniversaire à ma soeur je pourrais jouer le morceau comme ça =) merci =D


Inconnu...

Inconnu...

le 22/03/2009 20:57:17

jme suis trompée , deuxieme ligne : pareille que le 1 er


Inconnu...

Inconnu...

le 22/03/2009 19:14:13


Moi je prefere ça :
0-0-2-0-5-4
0-0-2-5-0-4
0-0-12-9-5-4-2-2
10-10-9-5-7-5


caloelo

caloelo

le 14/03/2009 20:01:25

0-0-2-5-4
0-0-2-5-4
0-0-12-9-5-4-2-2
10-10-9-5-7-5

+ la suite

Sinon elle est bien =)


Inconnu...

Inconnu...

le 05/03/2009 15:55:43

Suite s'il vous plait !!


Inconnu...

Inconnu...

le 26/02/2009 17:57:59

heuu... la suite elle est où???? smile_cool


Inconnu...

Inconnu...

le 29/01/2009 18:54:45

La suite pleaaseeee =D


Inconnu...

Inconnu...

le 19/01/2009 20:01:19

et la suit .... =D


Inconnu...

Inconnu...

le 19/01/2009 20:01:03

et la suite ...=D


tablature Joyeux annivesaire kashmir

Cette Tablature Joyeux annivesaire de kashmir est la création ou l'interprétation personnelle de l'artiste qui l'a déposé.
Conformément aux dispositions du Code de la Propriété Intellectuelle, seule l'utilisation de cette représentation pour un usage privé, réduite au cercle de famille, et la reproduction (impression, téléchargement) pour un usage strictement personnel, sont autorisés.
Rappel : Pour se conformer aux lois sur la propriété intellectuelle, les paroles de chansons ne sont pas autorisées sur Partoch.com. Retour aux Tablatures de kashmir.