JAFFRES GERARD

Tablature le groupe de reprise

Gerard Jaffres
Pop/Rock
Ajouter à mes artistes favoris
Format : Tablature Le groupe de reprise, Gérard jaffrès
Version #3076072 mise en tablature par two friends
Difficulté : 2/10
Note : 2/5 sur 3 avis

Tablature Le groupe de reprise, Gérard jaffrès

l-------------------------l l-------------------------l l-------------------------l l-------------------5-5---l x2 l-5-5---7-5-7--5-7------7-l l-------------------------l l-------------------------------------------------------l --------------------------------------------------------l l-------------------------------------------------------l l------------------5-5---8--7-5--8-7-5------------------l l-5-5---7-5-7--5-7--------------------------------------l l-------------------------------------------------------l tout est fait a l'oreille donc si il y a des fautes prevenez moi Bonne Gratte!!

Note cette tablature :

le groupe de reprise

Album : Mon pays t'attend

plus de tablatures de cet album



Connecte toi pour déposer un commentaire sur cette tablature !

Vos avis sur la tablature le groupe de reprise de gérard jaffrès #3076072


jerem29

jerem29

le 23/02/2011 16:22:24

Voici la tab entière :

|--------------------------------|
|--------------------------------|
|-7-7---4---4-----4--7-7-4-------|
|---------7-----7----------------| x2
|--------------------------------|
|--------------------------------|

|--------------------------------------|
|-------------------------6-5---6-5----|
|-7-7---4---4-----4-7-7-------7-----7--|
|---------7-----7----------------------|
|--------------------------------------|
|--------------------------------------|

couplet (x2) :
Ré Sol
Ré La
Ré Sol
La# Do Ré

Refrain :
Ré Sol
I can't get no, Nono
Ré La
Please, love me please, Denise
Ré Sol
You are so fun, Jean Reun
La# Do Ré
Smoke on the water, Gilbert

couplet

Refrain plus riff

couplet

Refrain plus riff
+ solo (gamme penta majeure à partir de case 10)


Refrain pour guitare solo :

|--------|--------13----|---------|-----------------9--|
|---9----|--12---13-12--|----9----|--------10----------|
|-7-9-7--|----12--------|--7-9-7--|-----------10h11----|
|--------|--------------|---------|--10h11-------------|
|--------|--------------|---------|--------------------|
|--------|--------------|---------|--------------------|

|--------|--------13----|---------|-----1----1----5----|
|---9----|--12---13-12--|----9----|-----1----1----5----|
|-7-9-7--|----12--------|--7-9-7--|-----3----5----7----|
|--------|--------------|---------|-----3----5----7----|
|--------|--------------|---------|-----1----3----5----|
|--------|--------------|---------|--------------------|



jerem29

jerem29

le 03/12/2010 11:53:21

Bonjour, les 2 premiers 5 sont sur la corde de Ré et la fin sur l'album est comme ceci

l-------------------------------------------------------l
--------------------------------------------------------l
l-------------------------------------------------------l
l-5-5--------------5-5---8--7-5--8-7-5------------------l
l-------7-5-7--5-7--------------------------------------l
l-------------------------------------------------------l

Mais si vous voulez respecter la tonalité originale, ça donne ceci :

l--------------------------------l
l--------------------------------l
l-7-7---4---4-----4-7-7-4--------l
l---------7-----7----------------1 x2
l--------------------------------l
1--------------------------------1


l----------------------------------------l
l-------------------------6-----6--------l
l-7-7---4---4-----4-7-7-----9-7---9-7----l
l---------7-----7------------------------1
l----------------------------------------l
1----------------------------------------1


Couplet :
Ré Sol (x3)
Si# Do Ré

Refrain :
...


tablature le groupe de reprise gérard jaffrès

Cette Tablature le groupe de reprise de gérard jaffrès est la création ou l'interprétation personnelle de l'artiste qui l'a déposé.
Conformément aux dispositions du Code de la Propriété Intellectuelle, seule l'utilisation de cette représentation pour un usage privé, réduite au cercle de famille, et la reproduction (impression, téléchargement) pour un usage strictement personnel, sont autorisés.
Rappel : Pour se conformer aux lois sur la propriété intellectuelle, les paroles de chansons ne sont pas autorisées sur Partoch.com. Retour aux Tablatures de gérard jaffrès.