ETHS

Tablature samantha

Eths
Alternative
Ajouter à mes artistes favoris
Format : Tablature Samantha, Eths
Version #3051169 mise en tablature par sof2531
Difficulté : 4/10
Note : 3/5 sur 5 avis

Tablature Samantha, Eths

normalement c sa ----------------------- ----------------------- --3----3----3---0---3-- ----------------------- -5-5655-5655-563-355--- ----------------------- après sa continue bon normalement jcroi ksa se fait avec une basse mais bon on sen fou faite comme vous vous voulez et dite moi se ke vous en penseraussi aller tchous!!!

Note cette tablature :



Connecte toi pour déposer un commentaire sur cette tablature !

Vos avis sur la tablature samantha de eths #3051169


|fr|(((((v¤lc¤m)))))

|fr|(((((v¤lc¤m)))))

le 08/08/2009 12:17:47

oups parcontre remeter la droite^^


----------------------------------------------------------------------------------------------------------------------------------------------------------------------------------------------------------------------
------------------------------------------------------------------------------------------------------------------5-----------5------------5--------------------------------------------------------------------------
-5---5-3-3-6-5---5-3-3-6-5----5-3-5-6--3---555--------------------------------------------------------------3---3---5-4-3---3---5-4-3----3---3-4--1---333-------------------------------------------------------------




|fr|(((((v¤lc¤m)))))

|fr|(((((v¤lc¤m)))))

le 08/08/2009 12:16:11

salut a tous ça s'est la bonne tablature vous verer



----------------------------------------------------------------------------------------------------------------------------------------------------------------------------------------------------------------------
------------------------------------------------------------------------------------------------------------------5-----------5------------5-------------------------------------------------------------------------
-5---5-3-3-6-5---5-3-3-6-5----5-3-5-6--3---555--------------------------------------------------------------3---3---5-4-3---3---5-4-3----3---3-4--1---333-------------------------------------------------------------


liliroc

liliroc

le 25/02/2009 16:27:49

ouai sa donne bien et en pluss je la chercher et sa fait pas tt a fait pareil mai c'est tré ressenblan XD'


Inconnu...

Inconnu...

le 29/06/2008 00:02:54

tu as raison sa donne a la basse mais sur l'album c'est de la grate

essaie pluto sa et dit moi se que tu en pence

---------5---------------5--------------5--------------3---------------------
--2---2----2-3----2---2----2-3---2---2----2-3---0---0----0-2----------------


Inconnu...

Inconnu...

le 26/12/2007 12:29:39

ba moi jler essayer en grette sava mai jtrouve que c'est mieu en basse lol


tablature samantha eths

Cette Tablature samantha de eths est la création ou l'interprétation personnelle de l'artiste qui l'a déposé.
Conformément aux dispositions du Code de la Propriété Intellectuelle, seule l'utilisation de cette représentation pour un usage privé, réduite au cercle de famille, et la reproduction (impression, téléchargement) pour un usage strictement personnel, sont autorisés.
Rappel : Pour se conformer aux lois sur la propriété intellectuelle, les paroles de chansons ne sont pas autorisées sur Partoch.com. Retour aux Tablatures de eths.