morricone ennio

Tablature le bon la brute et le truand

Ennio Morricone
Musiques du Monde
Ajouter à mes artistes favoris
Format : Tablature Le bon la brute et le truand, Ennio morricone
Version #3045064 mise en tablature par that's life
Difficulté : 2/10
Note : 3/5 sur 15 avis

Tablature Le bon la brute et le truand, Ennio morricone

---------------------- ---3---3-------------- -2---2---2---0-------- -----------3---0------ ouai bon je C pas terrible là présentation ---------------------- ---------------------- et il manque la fin... ---------------------- mais c ma première tab ---3---3-------1------ -2---2---2---0-------- -----------3---------- et ça ressemble assez à la mélodie originel ---------------------- ---------------------- ----------------------- p.s:si vou voulez faire semblant de danez un effet ---3---3--------------- -2---2---2------------- -----------3-2-0------- banjo, jouez près du chevalet. -----------------3-(0)- ----------------------- ----------------------- ---3---3--------------- -2---2---2--0---------- ---------------0------- ----------------------- ----------------------- -------------------------------------0---3---1-0---3---1-0-----0------------------------- ---------1-0---------1-0---------1-----3---3-----3---3-----1-1---1-----1----------------- -----2-----------2-----------2-----2-------------------------------2-2---2-0-0-2-----0--- ---0---3-------0---3-------0---3-------------------------------------------------3-3---2- -0-----------0-----------0--------------------------------------------------------------- -----------------------------------------------------------------------------------------

Note cette tablature :



Connecte toi pour déposer un commentaire sur cette tablature !

Vos avis sur la tablature le bon la brute et le truand de ennio morricone #3045064


mattlili

mattlili

le 28/07/2013 12:15:11

arrêtez de critiquer et proposez vos tabs. `Je la joue 7 et 9ème cases sur cordes mi la ré. pas mal. Mais vos propositions sont bien aussi je trouve.


jrstiflers

jrstiflers

le 10/04/2013 13:54:43

C'est pas clair..


Inconnu...

Inconnu...

le 26/04/2012 21:19:44

c'est 100 fois trop aigu


sowfii

sowfii

le 30/08/2011 19:14:36

C'est cool pour un début wink !


riril

riril

le 27/03/2011 19:36:47

c'est bien mais la fin je crois que c'est pas bon


pachien

pachien

le 18/11/2009 22:28:21

JE TROUVE SA SUPER!!!!!!


Inconnu...

Inconnu...

le 11/11/2008 20:59:31

PAS MAL POUR UN DEBUT!!!!


paradize70

paradize70

le 06/09/2008 12:01:42

J'aime bien


nidhoggr

nidhoggr

le 03/09/2008 18:09:51

rah ça ma déformé ma tab merde


nidhoggr

nidhoggr

le 03/09/2008 18:07:48

---10--10----------------10----10------------------10--10------------------10--10--------------
-10--10--10-----------10----10----10-------13----10--10--10--------------10--10--10------------
------------10-12--------------------10-12------------------10-9-------------------12----------
------------------12---------------------------------------------12-10----------------12-12----
-----------------------------------------------------------------------------------------------
-----------------------------------------------------------------------------------------------


--------------------||----------------------------3-5--1-0---3-||---------3-||----------------------
---------1-1-1-11---||-------------------1----3-1----------3---||3--6-5-3---||----------------------
-----2-----2-2-22---||---------------2-----2-------------------||-----------||----------------------
---0---3---3-3-33---||--X2---------0---3-----------------------||-----------||---X5-----------------
-0---------0-0-00---||----------0------------------------------||-----------||----------------------
--------------------||-----------------------------------------||-----------||---------------------- ..... ect ect y'a des petits trucs après, mais bon c'est déjà mieux comme ça.

Perds pas espoir, tu en fera d'autres des tabs....

@ plus l'artiste


Inconnu...

Inconnu...

le 16/01/2008 18:22:16

bauf !!!!


Inconnu...

Inconnu...

le 18/07/2006 18:03:17

Le début est pas mal, même si il n'est normalement pas joué à la guitare, mais la fin, je reconnais pas trop la mélodie en fait. C'est plus aigu la fin de phrase sur le riff de la fin


that

that's life

le 21/05/2006 22:45:05

bof


tablature le bon la brute et le truand ennio morricone

Cette Tablature le bon la brute et le truand de ennio morricone est la création ou l'interprétation personnelle de l'artiste qui l'a déposé.
Conformément aux dispositions du Code de la Propriété Intellectuelle, seule l'utilisation de cette représentation pour un usage privé, réduite au cercle de famille, et la reproduction (impression, téléchargement) pour un usage strictement personnel, sont autorisés.
Rappel : Pour se conformer aux lois sur la propriété intellectuelle, les paroles de chansons ne sont pas autorisées sur Partoch.com. Retour aux Tablatures de ennio morricone.