DEEP PURPLE

Tablature smoke on the water

Deep Purple
Pop/Rock
Ajouter à mes artistes favoris
Format : Tablature Smoke on the water, Deep purple
Version #2810494 mise en tablature par josk8_12
Difficulté : 1/10
Note : 3/5 sur 94 avis

Tablature Smoke on the water, Deep purple

1 ---------------------------------------------------- 2 ---------------------------------------------------- 3 --0---3---5---0---3---6---5---0----3---5---3---0---- 4 ---------------------------------------------------- 5 ---------------------------------------------------- 6 ----------------------------------------------------

Note cette tablature :



Connecte toi pour déposer un commentaire sur cette tablature !

Vos avis sur la tablature Smoke on the water de deep purple #2810494


angel-blue

angel-blue

le 18/09/2011 12:09:15

bien wink


Inconnu...

Inconnu...

le 08/08/2011 06:02:46

Elle est très bien ! Super simple ! Moi j'aime bien la joué sur E , sa donne un son beaucoup plus grave ( Roock)
mais après chacun ces gouts ! en tout cas très bien icon_cheesygrin


hellie

hellie

le 05/07/2011 00:19:31

C'est la seule que je sais joué pour l'instant et je l'ai aprise comme cela et elle rends bien d'autant que la vrai musique est très lente donc parfaite pour des débutant comme nous^^


Inconnu...

Inconnu...

le 29/06/2011 10:55:37

c'est est cool pour un debut !! continue ! :p


muséene

muséene

le 08/06/2011 18:18:46

J'ai toujours aimée cette chansson en plus :3


nono82523

nono82523

le 15/05/2011 17:11:50

sinon, ya
1-------------------------------------------------------
2-------------------------------------------------------
3--3---6---8---3---6---9---8---3---6---8---6---3-------
4-------------------------------------------------------
5-------------------------------------------------------
6-------------------------------------------------------
et ça passe quelque soit la corde et je trouve ça plus facile ^^


Inconnu...

Inconnu...

le 11/03/2011 09:48:26

genial


Inconnu...

Inconnu...

le 08/01/2011 16:52:44

je pense plutot que c'est sa :

1-------------------------------------------------------
2-------------------------------------------------------
3--0---3---5---0---3---6---5---0---3---6---5---3---0----
4-------------------------------------------------------
5-------------------------------------------------------
6-------------------------------------------------------


arnaud 13

arnaud 13

le 25/11/2010 20:48:19

cool merci c'est top de simplicité et de rendu.


lunsdepp

lunsdepp

le 02/10/2010 18:54:45

it's so good


grosloubi

grosloubi

le 12/06/2010 20:21:38

Ces bon mes jtrouve que ses mieux sa icon_cheesygrin



Deep Purple

1 ----------------------------------------------------
2 ----------------------------------------------------
3 --0---3---5---0---3---6---5---0----3---5---3---0----
4 --0---3---5---0---3---6---5---0----3---5---3---0----
5 ----------------------------------------------------
6 ----------------------------------------------------


Inconnu...

Inconnu...

le 16/02/2010 19:44:02

elle est très bien vote tab mais si vous i arrivez par coeur essayer ac la 3 et la 4 corde en même temps moi je trouve que sa sonne mieux


pepete29

pepete29

le 07/01/2010 17:44:36

Nikel


Inconnu...

Inconnu...

le 29/12/2009 13:46:00

Elle est vraiment simple parfait pour loi et mes potes manque que trouvé quequ'chose avec


mggal

mggal

le 28/12/2009 18:17:22

un peu simpliste mais birn pour débutant merc =)


Inconnu...

Inconnu...

le 27/12/2009 20:58:21

Merci je débute la guitare et c'est tres bien pour commencer


patinoucheur

patinoucheur

le 27/12/2009 20:06:35

Merci, josk cette tab simple ma aider a jouer un super morceau ( le refrain, c'est deja ça)^^


Inconnu...

Inconnu...

le 17/07/2009 13:30:18

facile et bon :)


Inconnu...

Inconnu...

le 20/03/2009 20:00:36

je trouve que ça donne mieux sur le mi grave soit la 6eme corde sur une tab' a essayer ;p


Smoke on the water

Album : A to Z of Rock (disc 1)

plus de tablatures de cet album

Greatest Hits (transcribed Scores) (partition)

Greatest Hits (Transcribed Scores) (Partition)
Type : Partition
Edition Hal Leonard

26,10 €

tablature Smoke on the water deep purple

Cette Tablature Smoke on the water de deep purple est la création ou l'interprétation personnelle de l'artiste qui l'a déposé.
Conformément aux dispositions du Code de la Propriété Intellectuelle, seule l'utilisation de cette représentation pour un usage privé, réduite au cercle de famille, et la reproduction (impression, téléchargement) pour un usage strictement personnel, sont autorisés.
Rappel : Pour se conformer aux lois sur la propriété intellectuelle, les paroles de chansons ne sont pas autorisées sur Partoch.com. Retour aux Tablatures de deep purple.