COLDPLAY

Tablature speed of sound

Coldplay
Pop/Rock
Ajouter à mes artistes favoris
Format : Tablature et Grille d'accords Speed of sound, Coldplay
Version #3033331 mise en tablature par lablonde95
Difficulté : 4/10
Note : 3/5 sur 17 avis

Tablature et Grille d'accords Speed of sound, Coldplay

Bon pas trés compliquée l'intro, le rendu est bien meilleure sur une guitare électrique. A vous de voir Intro (2 fois) e -----0-------------0---------------0---------------0---------- B --------3-------------3---------------3---------------3------- G ----------2---2----------0---0-----------0---0---------------- D ---------------------------------------------------------4---4 A -------------------------------------------------------------- E -------------------------------------------------------------- Couplet A Em Em D A Em Em D A Em Em D A Em Em D Répeter intro 2 fois A Em Em D Refrain G A Bm G A Bm G Bm D G G Bm F#m G Répéter Intro 2 fois Couplet: Refrain: Solo: variation sur D G A Bm E G A Bm [...] [...]E ooh G Bm D G G Bm F#m G F#m G Fin: variation sur G

Note cette tablature :



Connecte toi pour déposer un commentaire sur cette tablature !

Vos avis sur la tablature speed of sound de coldplay #3033331


-20cent-

-20cent-

le 23/07/2010 15:18:15

belle partoche seulement lorsqu'on refait l'intro on doit jouer qu'un seul 4. ça donne:

e -----0-------------0---------------0---------------0----------
B --------3-------------3---------------3---------------3-------
G ----------2---2----------0---0-----------0---0----------------
D ---------------------------------------------------------4---4
A --------------------------------------------------------------
E --------------------------------------------------------------

e -----0-------------0---------------0---------------0----------
B --------3-------------3---------------3---------------3-------
G ----------2---2----------0---0-----------0---0----------------
D ---------------------------------------------------------4----
A --------------------------------------------------------------
E --------------------------------------------------------------




Live 2003 (partition)

Live 2003 (Partition)
Type : Partition
Edition Amscowyse

29,50 €

tablature speed of sound coldplay

Cette Tablature et Grille d'accords speed of sound de coldplay est la création ou l'interprétation personnelle de l'artiste qui l'a déposé.
Conformément aux dispositions du Code de la Propriété Intellectuelle, seule l'utilisation de cette représentation pour un usage privé, réduite au cercle de famille, et la reproduction (impression, téléchargement) pour un usage strictement personnel, sont autorisés.
Rappel : Pour se conformer aux lois sur la propriété intellectuelle, les paroles de chansons ne sont pas autorisées sur Partoch.com. Retour aux Tablatures de coldplay.