COLDPLAY

Tablature in my place

Coldplay
Pop/Rock
Ajouter à mes artistes favoris
Format : Tablature In my place, Coldplay
Version #3034935 mise en tablature par extrem
Difficulté : 1/10
Note : 3/5 sur 14 avis

Tablature In my place, Coldplay

|-----12---12---7---9---7---9---12---12----| |------------------------------------------| |------------------------------------------| x4 |------------------------------------------| |------------------------------------------| |------------------------------------------| |---12---12---7---9---7---9---5------------| |------------------------------------------| |------------------------------------------| |------------------------------------------| |------------------------------------------| |------------------------------------------| in my place,,in my placeeeee bon voilà c tou simple j'espere ke sa vs plaira et bonne gratte a tous!!!!

Note cette tablature :



Connecte toi pour déposer un commentaire sur cette tablature !

Vos avis sur la tablature in my place de coldplay #3034935


bbrockstar

bbrockstar

le 24/06/2013 19:09:33

super !


helt

helt

le 28/04/2012 23:58:24

pas mal du tout !


Inconnu...

Inconnu...

le 02/01/2012 15:23:47

ou sinon sur la derniere corde toujours: 12-12------------12-12.....
-12-14-12-14-


Inconnu...

Inconnu...

le 21/06/2011 21:39:45

Je suis d'accord avec Jack !
Bravo !


Inconnu...

Inconnu...

le 22/04/2011 23:56:45

Moi je trouve que la c'est mieux mais après je sais pas donner moi votre avis (Tous sur la dernière Corde)

e|----12--12--7--9--7--9----|

e|----12--12--7--9--7--10----|

e|----12--12--7--9--7--9----|

e|----12--12--7/9--7--9--7--10----|

e|----12--12--7--9--7--9----|

e|----12--12--7--9--7--10----|

e|----12--12--7--9--7--9----|

e|----12--12--7/9--7--9--7--9--5----|

In My Place, In My Placeee !


neo-182

neo-182

le 27/08/2010 14:31:39

genial merci ^^


Inconnu...

Inconnu...

le 07/08/2009 15:41:28

Plutot d'accord avec loilerat


Inconnu...

Inconnu...

le 12/06/2009 21:39:34

je pense personnellement apres chacun la joue comme il veut mais que ce ne soit pas:
|-----12---12---7---9---7---9---12---12----|
|------------------------------------------|
|------------------------------------------| x4
|------------------------------------------|
|------------------------------------------|
|------------------------------------------|
mais plutôt:
|-----12---12---7---9---7---9-------|
|-----------------------------------|
|-----------------------------------|
|-----------------------------------|
|-----------------------------------|
|-----------------------------------|

|-----12---12---7---9---7---10------|
|-----------------------------------|
|-----------------------------------|
|-----------------------------------|
|-----------------------------------|
|-----------------------------------|

|-----12---12---7---9---7---9-------|
|-----------------------------------|
|-----------------------------------|
|-----------------------------------|
|-----------------------------------|
|-----------------------------------|

enfin je trouve que ça donne mieux^^
tchuss


Inconnu...

Inconnu...

le 16/04/2009 21:51:06

genial! icon_cheesygrin


in my place

Album : A Rush of Blood to the Head

plus de tablatures de cet albumVoir cet album

Live 2003 (partition)

Live 2003 (Partition)
Type : Partition
Edition Amscowyse

29,50 €

tablature in my place coldplay

Cette Tablature in my place de coldplay est la création ou l'interprétation personnelle de l'artiste qui l'a déposé.
Conformément aux dispositions du Code de la Propriété Intellectuelle, seule l'utilisation de cette représentation pour un usage privé, réduite au cercle de famille, et la reproduction (impression, téléchargement) pour un usage strictement personnel, sont autorisés.
Rappel : Pour se conformer aux lois sur la propriété intellectuelle, les paroles de chansons ne sont pas autorisées sur Partoch.com. Retour aux Tablatures de coldplay.