CINEMA

Tablature charlie chaplin

Cinema
Variétés
Ajouter à mes artistes favoris
Format : Tablature Charlie chaplin (les temps modernes), Cinema
Version #3049878 mise en tablature par claire
Difficulté : 1/10
Note : 4/5 sur 59 avis

Tablature Charlie chaplin (les temps modernes), Cinema

-7-8-7-6-7-8-7-silence--7-8-7-12-7-7-5---5-7-5-5-2-5-3 ----------------------------------------------------- ----------------------------------------------------- ----------------------------------------------------- ----------------------------------------------------- ----------------------------------------------------- Je trouve pas la suite donc si quelqu'un pourrai m'aider ^^

Note cette tablature :



Connecte toi pour déposer un commentaire sur cette tablature !

Vos avis sur la tablature Charlie Chaplin (Les temps Modernes) de cinema #3049878


séphora98

séphora98

le 21/04/2013 20:51:10

c'est trop classe c'est quand il danse et qu'il chante ! lol :)


jojo2525

jojo2525

le 06/10/2011 22:17:23

bien


Inconnu...

Inconnu...

le 29/01/2011 13:36:29

Simple oui mais rapide :) faut s'accrocher


Inconnu...

Inconnu...

le 09/04/2010 16:21:20

j'aime bien , dommage pour la fin mais bonne tab :)


Inconnu...

Inconnu...

le 29/06/2009 15:11:30

Pour la fin je mettrais :
-3-2-0--2-0----------------
------3--------------------
---------------------------
---------------------------
---------------------------
---------------------------

très bonne tab sinon ;=)


lodie91

lodie91

le 15/05/2009 17:09:47

merxi pour cette tab elle sonne bien mais dommage pour la fin


mamzelle-freddie

mamzelle-freddie

le 06/05/2009 21:30:58

Simpa ! Même si y a pas la fin c'est pas mal ! =)


batboy66

batboy66

le 13/04/2009 02:34:32

-7-8-7-6-7-8-7-silence--7-8-7-12-7-7-5---5-7-5-3-2-5-3---3-3-2-0--------
-----------------------------------------------------------------4-5----
------------------------------------------------------------------------
------------------------------------------------------------------------
------------------------------------------------------------------------
------------------------------------------------------------------------
voila en entier avec ce que j'ai trouvé ^^


flo0w

flo0w

le 31/10/2008 14:10:20

moi jferais, en reprennant ton dernier passage :
-5-7-5-3-2-5-3--3-5-3-2-0---0-
-----------------------------------4---
----------------------------------------
----------------------------------------
----------------------------------------
----------------------------------------

voila, jespère avoir aider...


Inconnu...

Inconnu...

le 04/10/2008 11:49:42

j'aime bien mais la fin est bizarre je trouve


tablature Charlie Chaplin (Les temps Modernes) cinema

Cette Tablature Charlie Chaplin (Les temps Modernes) de cinema est la création ou l'interprétation personnelle de l'artiste qui l'a déposé.
Conformément aux dispositions du Code de la Propriété Intellectuelle, seule l'utilisation de cette représentation pour un usage privé, réduite au cercle de famille, et la reproduction (impression, téléchargement) pour un usage strictement personnel, sont autorisés.
Rappel : Pour se conformer aux lois sur la propriété intellectuelle, les paroles de chansons ne sont pas autorisées sur Partoch.com. Retour aux Tablatures de cinema.