CALOGERO

Tablature face a la mer

Calogero
Variétés
Ajouter à mes artistes favoris
Format : Tablature Face à la mer (refrain), Calogero
Version #3056859 mise en tablature par gng02
Difficulté : 1/10
Note : 1/5 sur 10 avis

Tablature Face à la mer (refrain), Calogero

Bonjour voici la tablature spécial débutant : --------------------------------------------- --0-0-1----------0--------------------------- --------2---2-2-----0------------------------ --------------------------------------------- ----------------------1---------------------- --------------------------------------------- voila ses facile Laissez des commantaire merci :)

Note cette tablature :



Connecte toi pour déposer un commentaire sur cette tablature !

Vos avis sur la tablature Face à la mer (refrain) de calogero #3056859


titoug33

titoug33

le 02/02/2014 10:22:47

nul


Inconnu...

Inconnu...

le 27/02/2011 14:18:53

oui mais je le ferai plus comme cela.

-0--0-1----0-----0--0-1----0-----0--0-1-----------
-------3--3-1-0--------3--3-1-0--------3-3-5-1-0-1
--------------------------------------------------
--------------------------------------------------
--------------------------------------------------
--------------------------------------------------


clairettedu79

clairettedu79

le 02/08/2009 18:02:41

javoue =)


0000

0000

le 28/05/2009 14:26:12

je pense c'est mieux comme sa



--0---0--1------------------------0--0--1--------------------------
------------3-----3---5---1---0------------3----3---5---1----0----
---------------2------------------------------2-------------------
------------------------------------------------------------------
-----------------------------------------------------------------
----------------------------------------------------------------




Top Ten N.78

Top Ten N.78
Type : Partition
Edition Beusher

17,60 €

tablature Face à la mer (refrain) calogero

Cette Tablature Face à la mer (refrain) de calogero est la création ou l'interprétation personnelle de l'artiste qui l'a déposé.
Conformément aux dispositions du Code de la Propriété Intellectuelle, seule l'utilisation de cette représentation pour un usage privé, réduite au cercle de famille, et la reproduction (impression, téléchargement) pour un usage strictement personnel, sont autorisés.
Rappel : Pour se conformer aux lois sur la propriété intellectuelle, les paroles de chansons ne sont pas autorisées sur Partoch.com. Retour aux Tablatures de calogero.