CALOGERO

Tablature face a la mer

Calogero
Variétés
Ajouter à mes artistes favoris
Format : Tablature et Grille d'accords Face à la mer, Calogero
Version #3038378 mise en tablature par fouetos
Difficulté : 1/10
Note : 2/5 sur 7 avis

Tablature et Grille d'accords Face à la mer, Calogero

Voila "Face à la mer" de Calogero (très facile) -3-3-4-1-----1-2----------3-3-4-1------1-2----------5-5-6-3------3-4---- -----------1-----2-2-----------------1-----2-2-----------------3-----4-4 ------------------------------------------------------------------------ ------------------------------------------------------------------------ ------------------------------------------------------------------------ ------------------------------------------------------------------------

Note cette tablature :



Connecte toi pour déposer un commentaire sur cette tablature !

Vos avis sur la tablature Face à la mer de calogero #3038378


mariebcmoi

mariebcmoi

le 17/05/2008 16:43:23

OULALALA Il y a eu un problème avec la tab's.

E-3-3-4-1----1-3--------3-3-4-1----1-3--------5-5-6-3-----3-5------
B----------1-----4-3---------------1-----4-3----------------3-----6-5-6-
G--------------------------------------------------------------------------
D--------------------------------------------------------------------------
A--------------------------------------------------------------------------
E--------------------------------------------------------------------------


mariebcmoi

mariebcmoi

le 17/05/2008 16:42:04

Mouii moui .. Je t'ai corrigé ta tablature, mais c'est pas super super le LA.
M'enfin bon .. Que veux tu que j'y fasse, moi ?

E-3-3-4-1-----1-3----------3-3-4-1-----1-3----------5-5-6-3------3-5-------
B-----------1-----4-3----------------1-----4-3-----------------3-----6-5-6-
G--------------------------------------------------------------------------
D--------------------------------------------------------------------------
A--------------------------------------------------------------------------
E--------------------------------------------------------------------------


kinder064

kinder064

le 15/03/2008 20:50:06

les 2-2-2 il faut les remplacer par 3 sur la corde mi et 4-3 sur la corde si
et le 4-4-4 par 5 sur la corde mi et 6-5 sur la corde si
ça rend mieux
bonne tablature sinon!


Inconnu...

Inconnu...

le 18/03/2007 12:15:31

C'est bizard quand tu mes 2-2 ou 4-4 sa sonne pas bien


theotime14

theotime14

le 31/10/2006 09:33:52

vraiment bof ta tablature... nan je rigole sa va.§!!!


Inconnu...

Inconnu...

le 24/10/2006 22:56:44

a des moments ça peut aller mais a d'autre vraiment pas !!! 2-2 c'est faut et 4-4 c'est faut !


Top Ten N.78

Top Ten N.78
Type : Partition
Edition Beusher

17,60 €

tablature Face à la mer calogero

Cette Tablature et Grille d'accords Face à la mer de calogero est la création ou l'interprétation personnelle de l'artiste qui l'a déposé.
Conformément aux dispositions du Code de la Propriété Intellectuelle, seule l'utilisation de cette représentation pour un usage privé, réduite au cercle de famille, et la reproduction (impression, téléchargement) pour un usage strictement personnel, sont autorisés.
Rappel : Pour se conformer aux lois sur la propriété intellectuelle, les paroles de chansons ne sont pas autorisées sur Partoch.com. Retour aux Tablatures de calogero.