BONEY M

Tablature daddy cool

Boney M
Funk
Ajouter à mes artistes favoris
Format : Tablature Daddy cool pour Basse, Boney m
Version #3028474 mise en tablature par julien monssus
Difficulté : 3/10
Note : 3/5 sur 6 avis

Tablature Daddy cool pour Basse, Boney m

Daddy Cool Boney M Voici le riff de bass de cette chanson, qui doit rendre à peu près pareil à la guitare, si vous en avez une. Riff principal: G---------------------------------------------- D---------------------------------------------- A-8-8-8-8-8--11-10-8---6-6-6-6--6-3-6--8-8----- E---------------------------------------------- Quelquefois, pour suivre les paroles, vous jouez ça : G---------------------------------------------- D----------------------------------------------- A-3-3-3-3-3--8-8-8------------------------------ E-----------------------------------------------

Note cette tablature :



Connecte toi pour déposer un commentaire sur cette tablature !

Vos avis sur la tablature daddy cool de boney m #3028474


poulette_29

poulette_29

le 18/01/2009 20:35:17

super , simple et joli.
Je changerais juste l'avant derniere note:
G----------------------------------------------
D----------------------------------------------
A-8-8-8-8-8--11-10-8---6-6-6-6--6-3-6--7-8-----
E----------------------------------------------


hobbit54520

hobbit54520

le 13/07/2008 19:26:47

JE L'A JOUE PAS TOUT A FAIT COMME CA, EN FAIT IL MANQUE UNE PARTIE...

INTRO/BREAK

G-----------------------------------
D-3-3-3-3-3-3-6-5-3----------------- (X2OU4 SAIS PLUS A ECOUTER)
A-------------------6-6-6-6-6-3-5-6-
E-----------------------------------

PARTIE COUPLET ET REFRAIN

G-------------------------------------------------------------------
D-3-3-3-3-3-3-6-5-3---------------------------------3-3-3-3-3-3-0-2-
A-------------------6-6-6-6-6---6-5-3-3-3-3-3-3-3-6-----------------
E-----------------------------6-------------------------------------


ptite zaza

ptite zaza

le 11/03/2008 18:44:15

moi je changerais encore quelque ptit trucs du genre:

G-------------------------------------------
D-------------------------------------------
A-8-8-8-8-8-11-10-6-3-3-3-3-3-1-3-6-8... etc
E-------------------------------------------

vla!!! bisouss


boubou316

boubou316

le 02/08/2007 15:01:36

Moi je suis du même avis ! mais sinon c'est bien trouvé !


Inconnu...

Inconnu...

le 11/09/2006 20:14:12

wow super a jouer !!!

par contre la fin, ça n'est pas tout a fait ca, je metterai plutot ça :

G----------------------------------------------
D----------------------------------------------
A-8-8-8-8-8--11-10-8---6-6-6-6--6-3-6--7-8-----
E----------------------------------------------


daddy cool

Album : Take the Heat Off Me

plus de tablatures de cet albumVoir cet album

tablature daddy cool boney m

Cette Tablature daddy cool de boney m est la création ou l'interprétation personnelle de l'artiste qui l'a déposé.
Conformément aux dispositions du Code de la Propriété Intellectuelle, seule l'utilisation de cette représentation pour un usage privé, réduite au cercle de famille, et la reproduction (impression, téléchargement) pour un usage strictement personnel, sont autorisés.
Rappel : Pour se conformer aux lois sur la propriété intellectuelle, les paroles de chansons ne sont pas autorisées sur Partoch.com. Retour aux Tablatures de boney m.