HARPER BEN

Tablature waiting on an angel

Ben Harper
Pop/Rock
Ajouter à mes artistes favoris
Format : Tablature Waiting on an angel (live from mars), Ben harper
Version #2808265 mise en tablature par dwain
Difficulté : 2/10
Note : 4/5 sur 54 avis

Tablature Waiting on an angel (live from mars), Ben harper

Le morceau se joue dans l'ordre suivant : Intro Riff 1 [Verse 1] Riff 2 [Break] Riff 1 [Verse 2] Riff 3 [Chorus] Riff 2 [Break] Riff 1 [Verse 3] Riff 3 [Chorus] Riff 2 [Break] Riff 1 [Verse 4] Outro Intro : |-----------|---------|-----------|-------------| |------1--1-|----1--1-|----1--1^0-|----0--0^1---| |------0--0-|----0--0-|----2--2^0-|----0--0-----| |-----------|---------|-----------|-------------| |---3-------|-2-------|-0---------|-------------| |-----------|---------|-----------|-3-----------| |-----------|---------|-----------|-------------| |------1--1-|----1--1-|----1--1^0-|----0--0^1---| |------0--0-|----0--0-|----2--2^0-|----0--0-----| |-----------|---------|-----------|-------------| |---3-------|-2-------|-0---------|-------------| |-----------|---------|-----------|-3-----------| Riff 1 |-----------|---------|-----------|-------------| |------1--1-|----1--1-|----1--1^0-|----0--0^1---| |------0--0-|----0--0-|----2--2^0-|----0--0-----| |-----------|---------|-----------|-------------| |---3-------|-2-------|-0---------|-------------| |-----------|---------|-----------|-3-----------| |-----------|---------|-----------|-------------| |------1--1-|----1--1-|----1--1^0-|----0--0^1---| |------0--0-|----0--0-|----2--2^0-|----0--0-----| |-----------|---------|-----------|-------------| |---3-------|-2-------|-0---------|-------------| |-----------|---------|-----------|-3-----------| |-----------|---------|-----------|-------------| |------1--1-|----1--1-|----1--1^0-|----0--0^1---| |------0--0-|----0--0-|----2--2^0-|----0--0-----| |-----------|---------|-----------|-------------| |---3-------|-2-------|-0---------|-------------| |-----------|---------|-----------|-3-----------| |-----------|----------|----------|------------| |----1-1^0--|----0-0^1-|-----1-1--|-----1-1^0--| |----2-2^0--|----0-0---|-----2-2--|-----2-2^0--| |-3---------|----------|----------|------------| |-----------|----------|--0-------|------------| |-----------|-3--------|----------|--0---------| |-----------|-----------| |----1-1^0--|-----0-0^1-| |----2-2^0--|-----0-0---| |-3---------|-----------| |-----------|-----------| |-----------|--3--------| Riff 2 |-----------|---------|-----------|-------------| |------1--1-|----1--1-|----1--1^0-|----0--0^1---| |------0--0-|----0--0-|----2--2^0-|----0--0-----| |-----------|---------|-----------|-------------| |---3-------|-2-------|-0---------|-------------| |-----------|---------|-----------|-3-----------| |-----------|---------|-----------|-------------| |------1--1-|----1--1-|----1--1^0-|----0--0^1---| |------0--0-|----0--0-|----2--2^0-|----0--0-----| |-----------|---------|-----------|-------------| |---3-------|-2-------|-0---------|-------------| |-----------|---------|-----------|-3-----------| Riff 3 |-----------|-------------|-----------|-------------| |-----1-1---|-----1-1-----|-----1-1^0-|-----0-0^1---| |-----0-0---|-----0-0-----|-----2-2^0-|-----0-0-----| |-----------|-------------|--3--------|-------------| |--3--------|-------------|-----------|-------------| |-----------|--0----------|-----------|--3----------| |----------|------------|-----------|-------------| |-----1-1--|-----1-1^0--|-----1-1^0-|-----0-0^1---| |-----2-2--|-----2-2^0--|-----2-2^0-|-----0-0-----| |----------|------------|--3--------|-------------| |--0-------|------------|-----------|-------------| |----------|--0---------|-----------|--3----------| |-----------|-------------|-----------|-------------| |-----1-1---|-----1-1-----|-----1-1^0-|-----0-0^1---| |-----0-0---|-----0-0-----|-----2-2^0-|-----0-0-----| |-----------|-------------|--3--------|-------------| |--3--------|-------------|-----------|-------------| |-----------|--0----------|-----------|--3----------| |----------|------------|-----------|-------------| |-----1-1--|-----1-1^0--|-----1-1^0-|-----0-0^1---| |-----2-2--|-----2-2^0--|-----2-2^0-|-----0-0-----| |----------|------------|--3--------|-------------| |--0-------|------------|-----------|-------------| |----------|--0---------|-----------|--3----------| |-----------|---------|-----------|-------------| |------1--1-|----1--1-|----1--1^0-|----0--0^1---| |------0--0-|----0--0-|----2--2^0-|----0--0-----| |-----------|---------|-----------|-------------| |---3-------|-2-------|-0---------|-------------| |-----------|---------|-----------|-3-----------| Outro : |-----------|---------|-----------|-------------|-----------|-------0--| |------1--1-|----1--1-|----1--1^0-|----0--0^1---|------1--1-|------1---| |------0--0-|----0--0-|----2--2^0-|----0--0-----|------0--0-|-----0----| |-----------|---------|-----------|-------------|-----------|----2-----| |---3-------|-2-------|-0---------|-------------|---3-------|---3------| |-----------|---------|-----------|-3-----------|-----------|----------| [..] little.skater@free.fr

Note cette tablature :



Connecte toi pour déposer un commentaire sur cette tablature !

Vos avis sur la tablature Waiting on an angel (Live from Mars) de ben harper #2808265


luapb

luapb

le 21/04/2015 22:36:51

10000000000000000000000000/20 !!!!


quentinbourel

quentinbourel

le 20/06/2012 14:20:20

merci ,remarquable absolument génial 5/5


Inconnu...

Inconnu...

le 10/02/2012 20:30:53

J'ADOOOOOOORE !!!!!!!!! tout simplement !!!!! terrible !!!!!!!! merciiiiiiiiiiiiiiiiiii!!!


Inconnu...

Inconnu...

le 14/05/2011 19:30:55

un peu long mais super !!!


guitaristiquement

guitaristiquement

le 27/04/2011 14:17:35

cool :)


angus/young43

angus/young43

le 26/02/2011 11:59:57

merci 5


kermene56

kermene56

le 27/07/2010 14:18:43

perso , la claaaaaaaaaaasse ^^


tortuga

tortuga

le 02/04/2010 22:19:25

facile et jolie!! :)


aureastrale

aureastrale

le 11/03/2010 19:10:47

une des plus belles de ben et assez simple à jouer merki


rainuto

rainuto

le 16/12/2009 15:35:19

Simpas.


kiledangel

kiledangel

le 07/12/2009 20:41:53

comment on la joue on arpége ou en battement


Inconnu...

Inconnu...

le 11/11/2009 11:27:15

je voudrais entendre le sonIntro :

|-----------|---------|-----------|-------------|
|------1--1-|----1--1-|----1--1^0-|----0--0^1---|
|------0--0-|----0--0-|----2--2^0-|----0--0-----|
|-----------|---------|-----------|-------------|
|---3-------|-2-------|-0---------|-------------|
|-----------|---------|-----------|-3-----------|


|-----------|---------|-----------|-------------|
|------1--1-|----1--1-|----1--1^0-|----0--0^1---|
|------0--0-|----0--0-|----2--2^0-|----0--0-----|
|-----------|---------|-----------|-------------|
|---3-------|-2-------|-0---------|-------------|
|-----------|---------|-----------|-3-----------|


Riff 1
|-----------|---------|-----------|-------------|
|------1--1-|----1--1-|----1--1^0-|----0--0^1---|
|------0--0-|----0--0-|----2--2^0-|----0--0-----|
|-----------|---------|-----------|-------------|
|---3-------|-2-------|-0---------|-------------|
|-----------|---------|-----------|-3-----------|


|-----------|---------|-----------|-------------|
|------1--1-|----1--1-|----1--1^0-|----0--0^1---|
|------0--0-|----0--0-|----2--2^0-|----0--0-----|
|-----------|---------|-----------|-------------|
|---3-------|-2-------|-0---------|-------------|
|-----------|---------|-----------|-3-----------|


|-----------|---------|-----------|-------------|
|------1--1-|----1--1-|----1--1^0-|----0--0^1---|
|------0--0-|----0--0-|----2--2^0-|----0--0-----|
|-----------|---------|-----------|-------------|
|---3-------|-2-------|-0---------|-------------|
|-----------|---------|-----------|-3-----------|


|-----------|----------|----------|------------|
|----1-1^0--|----0-0^1-|-----1-1--|-----1-1^0--|
|----2-2^0--|----0-0---|-----2-2--|-----2-2^0--|
|-3---------|----------|----------|------------|
|-----------|----------|--0-------|------------|
|-----------|-3--------|----------|--0---------|


|-----------|-----------|
|----1-1^0--|-----0-0^1-|
|----2-2^0--|-----0-0---|
|-3---------|-----------|
|-----------|-----------|
|-----------|--3--------|


Inconnu...

Inconnu...

le 11/11/2009 10:00:47

Génial!!!


Inconnu...

Inconnu...

le 01/11/2009 18:56:27

Parfait. Facile et jolie


pingispong

pingispong

le 06/09/2009 14:37:34

Superbe chanson :=) Et très simple à jouer


mother love you

mother love you

le 02/09/2009 14:40:14

tout bonnement magnifique


Apprenez à Jouer Comme : Ben Harper

Apprenez à Jouer Comme : Ben Harper
Type : Partition
Edition Rebillard

19,90 €

tablature Waiting on an angel (Live from Mars) ben harper

Cette Tablature Waiting on an angel (Live from Mars) de ben harper est la création ou l'interprétation personnelle de l'artiste qui l'a déposé.
Conformément aux dispositions du Code de la Propriété Intellectuelle, seule l'utilisation de cette représentation pour un usage privé, réduite au cercle de famille, et la reproduction (impression, téléchargement) pour un usage strictement personnel, sont autorisés.
Rappel : Pour se conformer aux lois sur la propriété intellectuelle, les paroles de chansons ne sont pas autorisées sur Partoch.com. Retour aux Tablatures de ben harper.