AKON

Tablature beautiful

Akon
Rap Soul
Ajouter à mes artistes favoris
Format : Tablature et Grille d'accords Beautiful, Akon
Version #3077141 mise en tablature par lil'guitariste
Difficulté : 2/10
Note : 2/5 sur 4 avis

Tablature et Grille d'accords Beautiful, Akon

capo 3 accords Am 002210 F 133211 C 032010 G 320003 intro: E |--10-10------------------------------------------------------| B |--------13-13-9-9-9-10-10-10---------------------------------| G |-----------------------------11-11-11-11-10-10-10-10-10-10---| D |-------------------------------------------------------------| A |-------------------------------------------------------------| E |-------------------------------------------------------------| E |--10-10------------------------------------------------------| B |--------13-13-9-9-9-10-10-10-------------10-10-10-10-10-10---| G |-----------------------------11-11-11-11---------------------| D |-------------------------------------------------------------| A |-------------------------------------------------------------| E |-------------------------------------------------------------| pendant tout le morceau : Am F C G

Note cette tablature :



Connecte toi pour déposer un commentaire sur cette tablature !

Vos avis sur la tablature beautiful de akon #3077141


justinengn

justinengn

le 05/05/2013 16:51:26

On peut appliquer cette tablature a " Right now " aussi fin je crois juste pour les accords :)


justinengn

justinengn

le 05/05/2013 16:51:24

On peut appliquer cette tablature a " Right now " aussi fin je crois juste pour les accords :)


Inconnu...

Inconnu...

le 01/02/2011 21:42:42

c'est pas tre bien


lou4196

lou4196

le 29/10/2009 21:20:41

cool


Inconnu...

Inconnu...

le 27/10/2009 14:45:40

Merci littleswak !


littleswak

littleswak

le 27/07/2009 00:48:17

Je me permet de rectifié l'intro de ce morceau qui n'est pas tout juste bon

voici la rectification

E |--10-10------------------------------------------------------|
B |--------12-12-8-8-8-10-10-10---------------------------------|
G |-----------------------------11-11-11-11-9-9-9-9-9-9---------|
D |-------------------------------------------------------------|
A |-------------------------------------------------------------|
E |-------------------------------------------------------------|

E |--10-10------------------------------------------------------|
B |--------12-12-9-9-9-10-10-10-------------10-10-10-10-10-10---|
G |-----------------------------11-11-11-11---------------------|
D |-------------------------------------------------------------|
A |-------------------------------------------------------------|
E |-------------------------------------------------------------|


tablature beautiful akon

Cette Tablature et Grille d'accords beautiful de akon est la création ou l'interprétation personnelle de l'artiste qui l'a déposé.
Conformément aux dispositions du Code de la Propriété Intellectuelle, seule l'utilisation de cette représentation pour un usage privé, réduite au cercle de famille, et la reproduction (impression, téléchargement) pour un usage strictement personnel, sont autorisés.
Rappel : Pour se conformer aux lois sur la propriété intellectuelle, les paroles de chansons ne sont pas autorisées sur Partoch.com. Retour aux Tablatures de akon.