AIR

Tablature playground love

Air
Electronique
Ajouter à mes artistes favoris
Format : Playground love, Air
Version #2803379 mise en tablature par hand87_5
Difficulté : 5/10
Note : 2/5 sur 11 avis

Playground love, Air

********************************************************** Air - Playground Love ********************************************************** [INTRO] Cm7 F (x4) [VERSE 1] Eb G Cm Cm7 I'm a high school lover, Ab G Cm7 F and you're my favorite flavor. Ab F Ab F Love is all, all my soul. Ab G Cm You're my Playground Love. [SAXOPHONE SOLO] Cm7 F (x4) [VERSE 2] Yet my hands are shaking. I feel my body reeling. Time's no matter, I'm on fire. On the playground, love. *SAXOPHONE SOLO* [VERSE 3] You're the piece of gold that flashes on my soul. Extra time, on the ground. You're my Playground Love. [VERSE 4] Eb G Cm Cm7 Ab G Cm7 F (saxophone solo) Ab F Ab F Anytime, anyway, Ab G Cm___ You're my Playground Love.

Note cette tablature :

Les 2 autres tabs ou listes d'accords pour ce titre :

  • Pour Guitare :
  • Tablature Plaiground Love par bobafett
  • Tab + Accords Playground Love par glennouille
  • << Retour aux tablatures de air




    Connecte toi pour déposer un commentaire sur cette tablature !

    Vos avis sur la tablature Playground love de air #2803379


    Inconnu...

    Inconnu...

    le 08/02/2006 16:45:06

    J'ai la partie joué au saxo je vous le passe comme ça c'est parfait.




    1ère partie
    ------------------------------------------------------------------
    ------------------------------------------------------------------
    ------------------------------------------------------------------
    ------------------------------------------------------------------
    ---------13--------------------------------------------------
    ---11-11-----------10--8-------12-----------10-8-6----------------------------


    ------------------------------------------------------------------
    ------------------------------------------------------------------
    ------------------------------------------------------------------
    -------------10-13-------------12-10-12-10----------12-10-12-13-12-10-12-13----17---------------
    --------13---------------------------------12------------------
    --11-13--------------------------------------------------------------


    ------------------------------------------------------------------
    ------------------------------------------------------------------
    ------------------------------------------------------------------
    ---13--12--15--------17------12-10------12--13----12--10---8-7-8-----7-------------------
    -----------------------------------------------------------
    -----------------------------------------------------------------

    2ieme partie
    ------------------------------------------------------------------
    ------------------------------------------------------------------
    ------------------------------------------------------------------
    ------------------------------------------------------------------
    ------13-------------10--8------12------------10--6-----------10-10------
    13-11----------------------------------------------------------------


    ------------------------------------------------------------------
    ------------------------------------------------------------------
    ------------------------------12------------------14-15----8-------------
    ------------------------------------------------------------------
    --10-6-10---8----------10-12-----------------------------------------
    -----------------------------------------------------------------


    ------------------------------------------------------------------
    ------------------------------------------------------------------
    ---14-12--------------------------------------------------------------
    ----------13--12--10--12--13---------10-8----8----------------------------------
    ------------------------------------------10-------10----------
    -----------------------------------------------------------------


    3ieme partie solo saxo
    ------------------------------------------------------------------
    ------------------------------------------------------------------
    ------------------------------------------------------------------
    --------------13-12-10---------12-10-8----12-10-------9----------
    -11-----13---------------------------------------------------------
    -----------------------------------------------------------------



    ------------------------------------------------------------------
    ------------------------------------------------------------------
    ------------------------------------------------------------------
    -----------------------------------13-12-10-12-10-----------------
    -x-10-8------6-8-6-5-6--------------------------------10-8-6-8-6-
    -----------------------------------------------------------------



    ------------------------------------------------------------------
    ------------------------------------------------------------------
    --------------------------------12--10--8---10---8-----------------
    ----------------------------10--------------------------------------
    --8-10-13-------------10-12-----------------------------------------
    -----------------------------------------------------------------




    ------------------------------------------------------------------
    ------------------------------------------------------------------
    ------------------------------------------------------------------
    ---13-12-10-12-10-12-10--------8-10-8---------------------17--------
    ---------------------------------------10--------------------
    -----------------------------------------------------------------


    Super chanson je ne la connaissait pas.

    Bonne gratte,


    Inconnu...

    Inconnu...

    le 01/01/2004 00:00:00

    avec la partie saxo transposée à la guitare, ça serait parfait...
    quelqu'un peut'il se dévouer?!


    Playground love

    Album : The Virgin Suicides

    plus de tablatures de cet albumVoir cet album

    Aires De Jerez (partition)

    Aires de Jerez (Partition)
    Type : Partition
    Edition AFF

    37,10 €

    tablature Playground love air

    Cette Playground love de air est la création ou l'interprétation personnelle de l'artiste qui l'a déposé.
    Conformément aux dispositions du Code de la Propriété Intellectuelle, seule l'utilisation de cette représentation pour un usage privé, réduite au cercle de famille, et la reproduction (impression, téléchargement) pour un usage strictement personnel, sont autorisés.
    Rappel : Pour se conformer aux lois sur la propriété intellectuelle, les paroles de chansons ne sont pas autorisées sur Partoch.com. Retour aux Tablatures de air.