Dedo et Yacine > La chanson du geek


nouveau message Répondre
Recherche

#
Bonjour à tous !
Aprés de nombreuses recherches infructueuses je poste ici un message en dernier espoir :

Si quelqu'un peut m'avoir la tablature de cette fameuse chanson du jamel comedy club :
http://www.youtube.com/watch?v=3IaHEYpMrow

Je vous remercie d'avance icon_cheesygrin

Cordialement
NL



#
up ?

#
Moi aussi j'les voudrai bien ...
sad

#
hey!! alors je les cherchais de mon côté, et je crois avoir trouver quelque chose qui correspond à peu près ^^


--0--x--0---x----0--x--0--
--1--x--1---x----1--x--1--
--0--x--0---x----2--x--2--
--2--x--2---x----2--x--2--
--2--x--2---x----x--x--x--
--x--x--x---x----x--x--x--


voilà c'est mon premier semblant de tab donc soyez indulgent si ce n'est pas exactement ça, après désolé je n'ai pas précisé le nom des accords, je ne m'en souviens plus...

#
Le premier n'existe pas et le second est un Mi majeur mais il manque une note^^

waibcam

1 photo
#
Moi je dirai que c'est ca :

Version avec capo 1 :
--0--x--0---x----0--x--0--
--2--x--2---x----0--x--0--
--1--x--1---x----1--x--1--
--2--x--2---x----2--x--2--
--0--x--0---x----2--x--2--
--x--x--x---x----0--x--0--


Version sans capo:
--1--x--1---x----1--x--1--
--3--x--3---x----1--x--1--
--2--x--2---x----2--x--2--
--3--x--3---x----3--x--3--
--1--x--1---x----3--x--3--
--x--x--x---x----1--x--1--



#
waibcam > je trouve que ta solution colle mieux mais sans capo :)

#
Tout simplement çà wink


Version sans capo:
--1--x--1---x----1--x--1--
--3--x--3---x----4--x--4--
--2--x--2---x----2--x--2--
--3--x--3---x----1--x--1--
--1--x--1---x----3--x--3--
--x--x--x---x----1--x--1--


#
Voici ce que j'ai trouvé, utilise l'alternance : Bb5 Eb5

Bb5 :
E x
B x
G 3
D 3
A 1
A x

Eb5 :
E x
B 4
G 3
D 1
A x
E x

Je dirais difficulté 5-6 pour bloquer les autres cordes et bien plaquer les accords. Apres comme ce sont des accords de cinquieme c'est un peu moins riche comme son mais ca colle super ^^.
BONNE GRATTE !


nouveau message Répondre Recherche


plan Plan du Forum Tablatures||Tags : chanson, poste, infructueuses, ici, message, dernier, recherches, dedo, yacine