recherche nom groupe/ tablature


nouveau message Répondre
Recherche

#
voila j'ai appris une tablature mais la personne qui me l'a apprise ne connaissait pas le nom de la musique ni de l'auteur ...

elle fait :

-2-----2------2-|-0-----0-----0-|-2-----2-----2--|-0-----0-----0
---0-----0------|---0-----0-----|---0-----0------|---0-----0----
----------------|---------------|----------------|--------------
-2---2-----2-2--|-2---2----2-2--|-2---2-----2-2--|-2---2-----2-2
----------------|---------------|----------------|---------------
----------------|---------------|----------------|---------------

3-----3-----3--|-0-----3-------3-|-5-----5-----5-|-2-----2-----2--|
--0-----0------|---0-----0-------|---0-----0-----|---0-----0------|
---------------|-----------------|---------------|----------------|
---------------|-----------------|---------------|----------------|
3---3-----3-3--|-3---3-----3--3--|-5---5-----5-5-|-2---2----2-2---|
---------------|-----------------|---------------|----------------|

---------0--|
-------1----|
-----0------|
---2--------|
-3----------|
------------|

je ne connais ni parole, ni rien du tout >.<

mais par contre je me suis laissé dire que c'était necrophagist(e) l'auteur mais ce n'est pas du tout leur style de musique...

merci d'avance ^^




nouveau message Répondre Recherche


plan Plan du Forum Tablatures||Tags : -----, ---, auteur, nom, ----, tout, musique, tablature, laisse