de l'aide svp sur yesterday


nouveau message Répondre
Recherche

#
bonjour

est ce qu'une personne peut m'aider sur le morceau de yesterday : j'aimerai la tablature en tonalite de fa et pas en la comme ci dessous.

merci d'avance a tous ce qui peuvent m'aider et me consacrer un peu de temps




Yesterday - The beatles

a








||--------------0-2-3-2-0-0--0-0-------------------------------||
||--------0-2-4------------------3-1-0---1-0-0-----0-------0-0-||
||-2-0-0-------------------------------2-------2-0---2---0-----||
||-----------------------------------------------------2-------||
||-------------------------------------------------------------||
||-------------------------------------------------------------||

||--------------0-2-3-2-0-0--0-0-------------------------------||
||--------0-2-4------------------3-1-0---1-0-0-----0-------0-0-||
||-2-0-0-------------------------------2-------2-0---2---0-----||
||-----------------------------------------------------2-------||
||-------------------------------------------------------------||
||-------------------------------------------------------------||

||------0-2-3-2-0-2-0---0--------0-2-3-2-0-2-0---2-3------------||
||0--0----------------3---0--0-0---------------3-----3-1-0------||
||--------------------------------------------------------2-0-0-||
||--------------------------------------------------------------||
||--------------------------------------------------------------||
||--------------------------------------------------------------||

||-------0-2-3-2-0-0--0-0---------------------------------------------
||-0-2-4------------------3-1-0---1-0-0-----0-------0-0---0-------0-0-
||------------------------------2-------2-0---2---0-----0---2---0-----
||----------------------------------------------2-------------2-------
||--------------------------------------------------------------------
||--------------------------------------------------------------------



rafiki64

Tabber motivé
#
||--------------0-2-3-2-0-0--0-0-------------------------------||
||--------0-2-4------------------3-1-0---1-0-0-----0-------0-0-||
||-2-0-0-------------------------------2-------2-0---2---0-----||
||-----------------------------------------------------2-------||
||-------------------------------------------------------------||
||-------------------------------------------------------------||

||--------------0-2-3-2-0-0--0-0-------------------------------||
||--------0-2-4------------------3-1-0---1-0-0-----0-------0-0-||
||-2-0-0-------------------------------2-------2-0---2---0-----||
||-----------------------------------------------------2-------||
||-------------------------------------------------------------||
||-------------------------------------------------------------||

||------0-2-3-2-0-2-0---0--------0-2-3-2-0-2-0---2-3------------||
||0--0----------------3---0--0-0---------------3-----3-1-0------||
||--------------------------------------------------------2-0-0-||
||--------------------------------------------------------------||
||--------------------------------------------------------------||
||--------------------------------------------------------------||

||-------0-2-3-2-0-0--0-0---------------------------------------------
||-0-2-4------------------3-1-0---1-0-0-----0-------0-0---0-------0-0-
||------------------------------2-------2-0---2---0-----0---2---0-----
||----------------------------------------------2-------------2-------
||--------------------------------------------------------------------
||--------------------------------------------------------------------


Comme sa on comprendra mieux.


nouveau message Répondre Recherche


plan Plan du Forum Tablatures||Tags : ---, -------, -----, ------------------, yesterday, -------------------------------, aider, aide, beatles