Young Folks -> Meteo Canal Plus


nouveau message Répondre
Recherche

#
Voici la tablature pour Young Folks de Peter Bjorn et John qui était (ou qui l'est toujours je sais plus)aussi le générique de la météo dans "Le Grand Journal de Canal+":

-10-10-10-10-8-8-5-5-8----5-5-5-5-3-3-0----0-0-0-0----------------------------
---------------------------------------------------3-3-1-1---1---------------------------x2
-----------------------------------------------------------2--------------------------------
--------------------------------------------------------------------------------------------
--------------------------------------------------------------------------------------------
--------------------------------------------------------------------------------------------

-0-0-0-3-0-------0----------------0-------0-0-0-3-0-------0---------------------
-----------3-1-3----------1---1-3-------------------3-1-3-----1---1---1-1-1-----------x2
----------------------------2-------0---------------------------2---2-----------------------
--------------------------------------------------------------------------------------------
--------------------------------------------------------------------------------------------
--------------------------------------------------------------------------------------------

PS: Désolé pour le rythme mais je sais pas comment l'écrire




nouveau message Répondre Recherche


plan Plan du Forum Tablatures||Tags : ---, -------, meteo, ----, canal, ---------------------------, folks, young, plus