[explications] Les modes


nouveau message Répondre
Recherche

flobass

Mega Tabber
3 photos
#
Bonjour à toutes et à tous.wink
Je crée ce topic pour parler des modes.wink

Toutes les tonalitées avec leurs modes seront représentées !!! wink icon_cheesygrin

On peut penser les modes comme des gammes construites sur différents degrès de la gamme majeure.

La gamme majeure : do ré mi fa sol la si do


--------------0--2--4--5--
-----0--2--3--------------
--3-----------------------
--------------------------



Si vous prenez cette gamme particulière qui n'a aucun dièse bémol à l'armure, et allez de C à C, de D à D, E à E, F à F, G à G, A à A, B à B, vous aurez une idée ont les modes fonctionnnent.

Les modes étaient utilisés par les ancients Grecs, et ont conservés leurs noms grecs d'origine.

De C à C : (que nous connaissons sous le nom de gamme majeure), cela s'appelle le mode Ionien

do ré mi fa sol la si do

-----------------2--4--5---
--------2--3--5------------
--3--5---------------------
---------------------------



En commençant sur D sans dièse ni bémol, cela s'appele le mode Dorien
Ce mode particulier possède une qualité de son naturellement mineure.

ré mi fa sol la si do ré

-----------------4--5--7---
-----------5--7------------
--5--7--8------------------
---------------------------



De E à E, cela s'appelle le mode Phrygien , qui possède aussi une qualité de son naturellement mineure.

mi fa sol la si do ré mi

----------------------7--9---
------------7--9--10---------
--7--8--10-------------------
-----------------------------



De F à F, c'est le mode Lydien, qui possède une qualité de son majeure.

fa sol la si do ré mi fa

-------------------------------
-----------------0--2--3-------
--------0--2--3----------------
--1--3-------------------------



De G à G, on appele cela le mode Mixolydien.

Il possède une qualité de son majeure et est probablemment celui qu'on utilise le plus, car on peut s'en servir sur le blues en douze mesures.

---------------------------
-----------------2--3--5---
--------2--3--5------------
--3--5---------------------



De A à A, cela s'appelle le mode Aeolien.
Ce mode possède une qualité de son naturellement mineure et on l'appelle aussi parfois la gamme mineure naturelle.

la si do ré mi fa sol la

-------------------------------
--------------------5--7-------
-----------5--7--8-------------
--5--7--8----------------------




De B à B, cela s'appelle le mode Locrien.

Il fonctionne sur l'accord demi diminué.

si do ré mi fa sol la si do

-------------------2--4--
----------2--3--5--------
-2--3--5-----------------
-------------------------



Voilà pour une partie des explications.wink



flobass

Mega Tabber
3 photos
#
Voici tous les modes dans toutes les tonalitées : wink


TONALITÉ DE G MAJEUR :

G ionien :
(nombre de bémols ou de dièses :) #
--------------------------2--4--5--7--9--11--12--
-----------------2--4--5-------------------------
--------2--3--5----------------------------------
--3--5-------------------------------------------


A Dorien :
#

-------------------------4--5--7--9--11--12--14--
----------------4--5--7--------------------------
----------5--7-----------------------------------
-5--7--8-----------------------------------------


B Phrygien
#
------------------------------7--9--11--12--14--16--
-----------2--4--5--7--9--10------------------------
--2--3--5-------------------------------------------
----------------------------------------------------


C lydien
#
-----------------------------7--9--11--12--14--16--17--
-------------------7--9--10----------------------------
---------7--9--10--------------------------------------
--8--10------------------------------------------------


D mixolydien
#
-------------------------------------------14--16--17--19-----
--------------------9--10--12--14--16--17---------------------
---------9--10--12--------------------------------------------
-10--12-------------------------------------------------------


E Aeolien
#
----------------------------0--2--4--5--7--9----------
-------------------0--2--4----------------------------
----------0--2--3-------------------------------------
-0--2--3----------------------------------------------


F# Locrien :
#
--------------------------------4--5--7--9--11--------
--------------------2--4--5--7------------------------
-----------2--3--5------------------------------------
--2--3--5---------------------------------------------






TONALITÉ DE D MAJEUR :

D ionien
##
-----------------4--6--7--9--11--12--14--16--18--19--
--------4--5--7--------------------------------------
--5--7-----------------------------------------------
-----------------------------------------------------


E dorien :
##
-----------------------------------4--6--7--9----------------
--------------------0--2--4--5--7----------------------------
-----------0--2--4-------------------------------------------
--0--2--3----------------------------------------------------


F# phrygien
##
-------------------------------------------9--11---
--------------------------5--7--9--11--12----------
-----------2--4--5--7--9---------------------------
--2--3--5------------------------------------------


G lydien
##
-------------------------2--4--6--7--9--11--12--------------
----------------2--4--5-------------------------------------
-------2--4--5----------------------------------------------
-3--5-------------------------------------------------------


A Mixolydien
##
--------------------------4--6--7--9--11--12--14----
-----------------4--5--7----------------------------
--------4--5--7-------------------------------------
--5--7----------------------------------------------

B Aeolien
##
----------------------------------------------12--14--16----
------------------------------11--12--14--16----------------
------------7--9--10--12--14--------------------------------
--7--9--10--------------------------------------------------


C# Locrien




TONALITÉ DE A MAJEUR :

A Ionien
###
-------------------------------------9--11--13--14---
-----------------4--6--7--9--11--12------------------
--------4--5--7--------------------------------------
--5--7-----------------------------------------------


B Dorien
###
-------------------------------------------13--14--16---
------------------6--7--9--11--12--14--16---------------
------------7--9----------------------------------------
--7--9--10----------------------------------------------


C# Phrygien
###
-----------------------------------------------14--16--18---
------------------------9--11--12--14--16--18---------------
-------------9--11--12--------------------------------------
--9--10--12-------------------------------------------------

D Lydien
###
----------------------------------------14--16--18--19---
--------4--6--7--9--11--12--14--16--18-------------------
--5--7---------------------------------------------------
---------------------------------------------------------


E Mixolydien
###
----------------------------------4--6--7--9----
-------------------0--2--4--6--7----------------
----------0--2--4-------------------------------
-0--2--4----------------------------------------


F# Aeolien
###
---------------------------------------7--9--11--
--------------------------6--7--9--11------------
--------0--2--4--5--7--9-------------------------
--2--4-------------------------------------------


G# Locrien
-----------------------------------7--9--11--13--
-------------------4--6--7--9--11----------------
----------4--5--7--------------------------------
-4--5--7-----------------------------------------





TONALITÉ DE E MAJEUR

E Ionien
####
-----------------------------------4--6--8--9--
--------------------1--2--4--6--7--------------
-----------0--2--4-----------------------------
--0--2--4--------------------------------------


F# Dorien
####
-------------------------------------------9--11--
--------------------------6--7--9--11--13---------
-----------2--4--6--7--9--------------------------
--2--4--5-----------------------------------------


G# Phrygien
####
--------------------------------6--8--9--11--13--------------
--------------------4--6--7--9-------------------------------
-----------4--6--7-------------------------------------------
--4--5--7----------------------------------------------------


A lydien
####
-----------------------------6--8--9--11--13--14--
-----------------4--6--7--9-----------------------
--------4--6--7-----------------------------------
--5--7--------------------------------------------


B Myxolydien
####
--------------------------------------11--13--14--16-
-----------------6--7--9--11--13--14-----------------
--------6--7--9--------------------------------------
--7--9-----------------------------------------------


C# Aeolien
####
---------------------------------------------13--14--16--18--
-----------------------------11--13--14--16------------------
-----------------11--12--14----------------------------------
--9--11--12--14----------------------------------------------


D# Locrien
####
------------------------------------13--14--16--18--20--
-----------6--7--9--11--13--14--16----------------------
--6--7--9-----------------------------------------------
--------------------------------------------------------






TONALITÉ DE B MAJEUR

B Ionien
#####
-------------------------------------11--13--15--16-
----------------6--8--9--11--13--14-----------------
-------6--7--9--------------------------------------
-7--9-----------------------------------------------


C# Dorien
#####
----------------3--4--6--8--9--11--13--15--16--18--
----------4--6-------------------------------------
-4--6--7-------------------------------------------
---------------------------------------------------


D# Phrygien
#####
-------------------6--8--9--11--13--15--16--18--20--
----------6--8--9-----------------------------------
-6--7--9--------------------------------------------
----------------------------------------------------


E lydien
#####
----------------------------------4--6--8--9----------
-------------------1--2--4--6--8----------------------
----------1--2--4-------------------------------------
-0--2--4----------------------------------------------


F# Mixolydien
#####
----------------------------------6--8--9--11--
----------------1--2--4--6--8--9---------------
-------1--2--4---------------------------------
-2--4------------------------------------------


G# Aeolien
#####
-------------------------------6--8--9--11--13-------
-------------------4--6--8--9------------------------
----------4--6--7------------------------------------
-4--6--7---------------------------------------------


A# Locrien
#####
------------------------------------9--11--13--15--
-------------------6--8--9--11--13-----------------
----------6--7--9----------------------------------
-6--7--9-------------------------------------------







TONALITÉ DE F# MAJEUR

F# Ionien
### ###

-----------------------------------6--8--10--11--
-----------------1--3--4--6--8--9----------------
--------1--2--4----------------------------------
--2--4-------------------------------------------


G# Dorien
### ###

-------------------------------6--8--10--11--13--
----------------3--4--6--8--9--------------------
----------4--6-----------------------------------
-4--6--7-----------------------------------------


A# Phrygien
### ###

-------------------1--3--4--6--8--10--11--13--15-
----------1--3--4--------------------------------
-1--2--4-----------------------------------------
-------------------------------------------------


B Lydien
### ###

---------------------------------10--11--13--15--16-
----------------6--8--9--11--13---------------------
-------6--8--9--------------------------------------
-7--9-----------------------------------------------


C# Mixolydien
### ###

---------------------------------10--11--13--15--16--18--
-------------------8--9--11--13--------------------------
---------8--9--11----------------------------------------
--9--11--------------------------------------------------


D# Aeolien
### ###

---------------------------------------15--16--18--20-
----------6--8--9--11--13--15--16--18-----------------
-6--8--9----------------------------------------------
------------------------------------------------------


E# Locrien
### ###

-------------------------------3--4--6--8--10--
-------------------1--3--4--6------------------
----------1--2--4------------------------------
-1--2--4---------------------------------------





TONALITÉ DE F MAJEUR

F Ionien
b

-------------------------0--2--3--5--7--9--10-
----------------0--2--3-----------------------
-------0--1--3--------------------------------
-1--3-----------------------------------------


G Dorien
b

----------------------------------------9--10--12-
-----------------2--3--5--7--8--10--12------------
-----------3--5-----------------------------------
--3--5--6-----------------------------------------


A Phrygien
b

-----------------------------------------------10--12--14--
-------------------------------10--12--14--15--------------
----------5--7--8--10--12--13------------------------------
-5--6--8---------------------------------------------------


Bb Lydien
b

-------------------------------------10--12--14--15--
----------------5--7--8--10--12--14------------------
-------5--7--8---------------------------------------
-6--8------------------------------------------------


C Mixolydien
b

----------------------------------------12--14--15--17--
------------------7--8--10--12--14--15------------------
--------7--8--10----------------------------------------
-8--10--------------------------------------------------


D Aeolien
b

-----------------------------------12--14--15--17--19-
----------5--7--8--10--12--14--15---------------------
-5--7--8----------------------------------------------
------------------------------------------------------


E Locrien
b

-------------------------------2--3--5--7--9--
-------------------0--2--3--5-----------------
----------0--1--3-----------------------------
-0--1--3--------------------------------------





TONALITÉ DE Bb MAJEUR

Bb Ionien
bb

--------------------------------------10--12--14--15--
-----------------5--7--8--10--12--13------------------
--------5--6--8---------------------------------------
--6--8------------------------------------------------


C Dorien
bb

-------------------------------------10--12--14--15--17--
-------------------------10--12--13----------------------
-3--5--6--8--10--12--13----------------------------------
---------------------------------------------------------


D Phrygien
bb

-----------------------------------------12--14--15--17--19--
-----------------------------12--13--15----------------------
-------------10--12--13--15----------------------------------
-10--11--13--------------------------------------------------


Eb Lydien
bb

---------------------------------------------15--17--19--20--
---------------------------------15--17--19------------------
---------10--12--13--15--17--18------------------------------
-11--13------------------------------------------------------


F Mixolydien
bb

----------------------------------5--7--8--10-
----------------0--1--3--5--7--8--------------
-------0--1--3--------------------------------
-1--3-----------------------------------------


G Aeolien
bb

----------------------------------------------10--12---
----------------------------------10--12--13-----------
----------3--5--6--8--10--12--13-----------------------
-3--5--6-----------------------------------------------


A Locrien
bb

-------------------------------------------10--12--14--
-------------------------------10--12--13--------------
----------5--6--8--10--12--13--------------------------
-5--6--7-----------------------------------------------







TONALITÉ DE Eb MAJEUR


Eb Ionien
bbb

--------------------------------12--13--15--17--19--20--
-1--3--5--6--8--10--12--13--15--------------------------
--------------------------------------------------------
--------------------------------------------------------


F Dorien
bbb

---------------------------------------------------------
--------------------------------------------12--13--15---
--------------------------------11--13--15---------------
-1--3--4--6--8--10--11--13--15---------------------------


G Phrygien
bbb

-----------------------------------7--8--10--12-------
-------------------3--5--6--8--10---------------------
----------3--5--6-------------------------------------
-3--4--6----------------------------------------------


Ab Lydien
bbb

----------------------------------------10--12--13----
----------------3--5--6--8--10--12--13----------------
-------3--5--6----------------------------------------
-4--6-------------------------------------------------


Bb Mixolydien
bbb

----------------0--1--3--5--7--8--10--12--13--15---
-------0--1--3-------------------------------------
-1--3----------------------------------------------
---------------------------------------------------


C Aeolien
bbb

----------------------------------10--12--13--15--17-
----------3--5--6--8--10--12--13---------------------
-3--5--6---------------------------------------------
-----------------------------------------------------


D Locrien
bbb

-------------------------------------------------15--17--19--
-------------------------------------15--17--18--------------
-----------------11--13--15--17--18--------------------------
-10--11--13--15----------------------------------------------






TONALITÉ DE Ab MAJEUR

Ab Ionien
bbbb

------------------------------------8--10--12--13--
----------------3--5--6--8--10--11-----------------
-------3--4--6-------------------------------------
-4--6----------------------------------------------


Bb Dorien
bbbb

--------------------------------------10--12--13--15--
--------------------6--8--10--11--13------------------
----------6--8--10------------------------------------
-6--8--9----------------------------------------------


C Phrygien
bbbb

----------------------------------------12--13--15--17--
---------------------8--10--11--13--15------------------
-3--4--6--8--10--11-------------------------------------
--------------------------------------------------------


Db Lydien
bbbb

------------------------------------------------15--17--18--
------------------------------------15--17--18--------------
------------10--11--13--15--16--18--------------------------
-9--11--13--------------------------------------------------


Eb Mixolydien
bbbb

-------------------------------------------15--17--18--20--
-------------------10--11--13--15--17--18------------------
-6--8--10--11--13------------------------------------------
-----------------------------------------------------------


F Aeolien
bbbb

---------------------------------------6--8--10---
-----------------------------6--8--10-------------
----------1--3--4--6--8--10-----------------------
-1--3--4------------------------------------------


G Locrien
bbbb

-----------------------------------------8--10--12---
------------------------------8--10--11--------------
----------3--4--6--8--10--11-------------------------
-3--4--6---------------------------------------------





TONALITÉ DE Db MAJEUR

Db Ionien
bbb bb

------------------------------------------13--15--17--18-
-------------------8--10--11--13--15--16-----------------
---------8--9--11----------------------------------------
--9--11--------------------------------------------------


Eb Dorien
bbb bb

---------------------------------------------15--17--18--20--
---------------------10--11--13--15--16--18------------------
-------------11--13------------------------------------------
-11--13--14--------------------------------------------------


F Phrygien
bbb bb

--------------------------------------6--8--10-----
----------------------------6--8--10---------------
-------------------6--8--9-------------------------
-1--2--4--6--8--9----------------------------------


Gb Lydien
bbb bb

-------------------------------5--6--8--10--11----
----------------1--3--4--6--8---------------------
-------1--3--4------------------------------------
-2--4---------------------------------------------


Ab Mixolydien
bbb bb

------------------------------------8--10--11--13-
----------------3--4--6--8--10--11----------------
-------3--4--6------------------------------------
-4--6---------------------------------------------


Bb Aeolien
bbb bb

-------------------------------------10--11--13--15-
----------1--3--4--6--8--10--11--13-----------------
-1--3--4--------------------------------------------
----------------------------------------------------


C Locrien
bbb bb

------------------------------------------13--15--17--
----------3--4--6--8--10--11--13--15--16--------------
-3--4--6----------------------------------------------
------------------------------------------------------





TONALITÉ DE Gb MAJEUR

Gb Ionien
bbb bbb

-----------------------------------6--8--10--11---
-----------------1--3--4--6--8--9-----------------
--------1--2--4-----------------------------------
--2--4--------------------------------------------


Ab Dorien
bbb bbb
TONALITÉ DE Ab MAJEUR

Ab Ionien
bbbb

------------------------------------8--10--12--13--
----------------3--5--6--8--10--11-----------------
-------3--4--6-------------------------------------
-4--6----------------------------------------------


Bb Dorien
bbbb

--------------------------------------10--12--13--15--
--------------------6--8--10--11--13------------------
----------6--8--10------------------------------------
-6--8--9----------------------------------------------


C Phrygien
bbbb

----------------------------------------12--13--15--17--
---------------------8--10--11--13--15------------------
-3--4--6--8--10--11-------------------------------------
--------------------------------------------------------


Db Lydien
bbbb

------------------------------------------------15--17--18--
------------------------------------15--17--18--------------
------------10--11--13--15--16--18--------------------------
-9--11--13--------------------------------------------------


Eb Mixolydien
bbbb

-------------------------------------------15--17--18--20--
-------------------10--11--13--15--17--18------------------
-6--8--10--11--13------------------------------------------
-----------------------------------------------------------


F Aeolien
bbbb

---------------------------------------6--8--10---
-----------------------------6--8--10-------------
----------1--3--4--6--8--10-----------------------
-1--3--4------------------------------------------


G Locrien
bbbb

-----------------------------------------8--10--12---
------------------------------8--10--11--------------
----------3--4--6--8--10--11-------------------------
-3--4--6---------------------------------------------





TONALITÉ DE Db MAJEUR

Db Ionien
bbb bb

------------------------------------------13--15--17--18-
-------------------8--10--11--13--15--16-----------------
---------8--9--11----------------------------------------
--9--11--------------------------------------------------


Eb Dorien
bbb bb

---------------------------------------------15--17--18--20--
---------------------10--11--13--15--16--18------------------
-------------11--13------------------------------------------
-11--13--14--------------------------------------------------


F Phrygien
bbb bb

--------------------------------------6--8--10-----
----------------------------6--8--10---------------
-------------------6--8--9-------------------------
-1--2--4--6--8--9----------------------------------


Gb Lydien
bbb bb

-------------------------------5--6--8--10--11----
----------------1--3--4--6--8---------------------
-------1--3--4------------------------------------
-2--4---------------------------------------------


Ab Mixolydien
bbb bb

------------------------------------8--10--11--13-
----------------3--4--6--8--10--11----------------
-------3--4--6------------------------------------
-4--6---------------------------------------------


Bb Aeolien
bbb bb

-------------------------------------10--11--13--15-
----------1--3--4--6--8--10--11--13-----------------
-1--3--4--------------------------------------------
----------------------------------------------------


C Locrien
bbb bb

------------------------------------------13--15--17--
----------3--4--6--8--10--11--13--15--16--------------
-3--4--6----------------------------------------------
------------------------------------------------------





TONALITÉ DE Gb MAJEUR

Gb Ionien
bbb bbb

----------------------------------8--10--11--13--
-------------------4--6--8--9--11----------------
----------4--6--8--------------------------------
-4--6--7-----------------------------------------


Bb Phrygien
bbb bbb

--------------------------------------------11--13--15-
--------------------------------11--13--15-------------
-----------6--8--9--11--13--14-------------------------
--6--7--9----------------------------------------------


Cb Lydien
bbb bbb

--------------------------------------11--13--15--16--
-----------------6--8--9--11--13--15------------------
--------6--8--9---------------------------------------
--7--9------------------------------------------------


Db Mixolydien
bbb bbb

--------------------------------------------13--15--16--18-
--------------------------------13--15--16-----------------
--------------------13--14--16-----------------------------
-9--11--13--14--16-----------------------------------------


Eb Aeolien
bbb bbb

-------------------------------------11--13--15--16--18--20----
-------------------------11--13--15----------------------------
-------------11--13--14----------------------------------------
-11--13--14----------------------------------------------------


F Locrien
bbb bbb

-----------------------------------------8--10--
-------------------1--3--4--6--8--9--11---------
----------1--2--4-------------------------------
-1--2--4----------------------------------------





Maintenant que vous avez tous ces modes sous les yeux, la question qui se pose est "Qu'est-ce que je vais en faire ?"

Les modes sont applicables à n'importe quelle progression d'accords et vous permettent de créer une ligne (de basse par exemple) quasiment instantanément.

Les modes utilisés à la base en rock sont :
Ionien (majeur)
Dorien (mineur)
Mixolydien (dominante)
Et à l'occasion Locrien pour ses qualités diminuées. wink

#
Salut ,
Je pense que pour les modes,il faut résonner en intervalles, comme je l'ai dit dans un autre post.

flobass

Mega Tabber
3 photos
#
brougen a écrit :
Salut ,
Je pense que pour les modes,il faut résonner en intervalles, comme je l'ai dit dans un autre post.


ça, c'est pour ceux qui veulent les gammes.wink

#
flobass
flobass a écrit :

brougen a écrit :
Salut ,
Je pense que pour les modes,il faut résonner en intervalles, comme je l'ai dit dans un autre post.


ça, c'est pour ceux qui veulent les gammes.wink


je suis pour les intervals aussi,
tu fais quoi de l'harmonie sinon ?

et pour ce qui ne sont pas (que) guitariste, hum ? pense a eux une peu icon_cheesygrin
et tu fais quoi de la transposition ?
j'ai vu des autodidacte qui avait apris des position comme ca pour une seule tonalite mais impossible de transposer car ils ont appris ca comme un seul bloc, donc il doivent tout reapprendre :s pas cool.

enfin, ce serait pas mal de mettre les intervals

aria35

1 photo
#
moi je dis bravo bravo car il t'en a fallu et de la patience pour faire ca maitre

#
Wahhh magnifique !
Y a t-il une astuce pour toutes les apprendre?

#
Wahh magnifique!!
Y a t-il une astuce pour tous les apprendre?

#
Joli travail Flobass bravo

A quand la suite avec qq trucs pour utiliser facilement tout ce matos ?

#
Moi aussi une solution pour retenir j'ai besoin stp!

#
Désoler pour le déterrage mais il me semble que c'est l'endroit propice à ma question icon_cheesygrin .
M'intéressant de plus en plus au jazz je commence donc a m'intéresser aux modes.
Une question me tracasse je ne comprend pas tout.

Si je suis en tonalité de DO, et que j'ai une progression II-V-I, donc Rém7-SolM7-DoM7, je peux dire que je suis en tonalité de Ré Dorien?
Et quand je veux appliquer ces modes je ne comprend pas tout. Si je doit commencer a jouer Dorien, je prend la gamme majeur de DO et je joue mes phrase en commencent par Ré? Quand je doit jouer Mixolydien pareil en commençant par Sol? Et Ionien par Do?

Mes questions peuvent peut-être paraître bêtes mais j'ai beaucoup de mal a tout comprendre malgrés ma volonté je suis totalement perdu dans toute cette histoire endesaccord3 !

#
pssssst !
le II V I de DO c'est Rem7 Sol7 Do maj7 . et comme tu dis, tu es dans la tonalité de Do d'ailleur le I de ta progression est Do . Comment en viens tu a dire que tu es en tonalité de Re dorien ? (un peu de melange la, non ? )

donc, la vrai question dans tout ça, c'est une fois que l'on a appris les fameux modes, dans la pratique, pour improviser on fait quoi ? il faut dire que sur le net on trouve tout et sont contraire! et que la plupart du temps une fois expliqué les sempiternels modes, les "profs" ne vont pas plus loin. en cherchant un peu on trouve pourtant quelques reponses .
comme je n'ai pas envie de refaire ce qui a deja ete fait, je vous envois faire un tour ici : http://www.guitare-improvisation.com/improviser_le-jazz_les_II_V_I.php les plus avancés trouveront ça facile, mais il me semble que les reponses aux questions les plus souvent posées sont la .


nouveau message Répondre Recherche


plan Plan du Forum Solfège||Tags : mode, sol, cela, modes, les, majeure, possede, qualite, gamme