Recherche des partoches de rené aubry


nouveau message Répondre
Recherche

#
Bonjour,

J'ai découvert un nouveau compositeur c'est rené aubry. Je pense que peu connaissent car il n'est pas du tout connu mais en tt cas c'est un super guitariste. Si quelqu'un avait ou savait où trouver des tablatures de lu de l'album "plaisir d'amour" ca serait vmt sympa de me le faire savoir.

merciiiiiii



#
Plaisirs d'Amour, Demi-Lune (morceau 7)
dernière modification: 06/08/2008 - 00:02
René Aubry : Plaisirs d'Amour, Morceau 7
Transcription : Guil99
(source: http://joune.free.fr)

1°Mouvement : Phase 1
|------------------------------------------------|
|----5---5-------5---5-----5---5---5-----5---5---|
|--6---6---6---4---4---4-----4---4-----7---7---7-|
|------------------------------------------------|
|0-----------4-----------5-----------------------|
|------------------------------------0-----------|

|--------------------------------------4---4---4-|
|----5---5-------5---5-----5---5---5-----5---5---|
|--6---6---6---4---4---4-----4---4---------------|
|------------------------------------------------|
|0-----------4-----------5-----------------------|
|------------------------------------0-----------|

|----5---5-------4---4-------5---5-------4---4---|
|------------------------------------------------|
|--6---6---6---4---4---4---7---7---7---4---4---4-|
|------------------------------------------------|
|0-----------4-----------5-----------------------|
|------------------------------------0-----------|

|----------------------------0---0-------------------0-|
|----5---5-------5---5-----3---3---3-----5---5-------5-|
|--6---6---6---4---4---4---------------7---7---7-----7-|
|----------------------------------------------------0-|
|0---------------------------------------------------0-|
|------------3-----------1-----------0---------------0-|

1°Mouvement : Phase 2 (=Phase 1)
|------------------------------------------------|
|----5---5-------5---5-----5---5---5-----5---5---|
|--6---6---6---4---4---4-----4---4-----7---7---7-|
|------------------------------------------------|
|0-----------4-----------5-----------------------|
|------------------------------------0-----------|

|--------------------------------------4---4---4-|
|----5---5-------5---5-----5---5---5-----5---5---|
|--6---6---6---4---4---4-----4---4---------------|
|------------------------------------------------|
|0-----------4-----------5-----------------------|
|------------------------------------0-----------|

|----5---5-------4---4-------5---5-------4---4---|
|------------------------------------------------|
|--6---6---6---4---4---4---7---7---7---4---4---4-|
|------------------------------------------------|
|0-----------4-----------5-----------------------|
|------------------------------------0-----------|

|----------------------------0---0-------------------0-|
|----5---5-------5---5-----3---3---3-----5---5-------5-|
|--6---6---6---4---4---4---------------7---7---7-----7-|
|----------------------------------------------------0-|
|0---------------------------------------------------0-|
|------------3-----------1-----------0---------------0-|


1°Mouvement : Phase 3
|------------------------------------------------|
|----5---5-------5---5-------6---6-------5---5---|
|--5---5---5---4---4---4---7---7---7---4---4---4-|
|------------------------------------------------|
|0-----------3-----------5-----------------------|
|------------------------------------0-----------|

|----------------------------------------4---4---|
|----5---5-------5---5-------6---6-----5---5---5-|
|--5---5---5---4---4---4---7---7---7-------------|
|------------------------------------------------|
|0-----------3-----------5-----------------------|
|------------------------------------0-----------|

|----5---5-------4---4-------5---5-------4---4---|
|------------------------------------------------|
|--6---6---6---4---4---4---7---7---7---4---4---4-|
|------------------------------------------------|
|0-----------4-----------5-----------------------|
|------------------------------------0-----------|

|----------------------------0---0-------------------0-|
|----5---5-------5---5-----3---3---3-----5---5-------5-|
|--6---6---6---4---4---4---------------7---7---7-----7-|
|----------------------------------------------------0-|
|0---------------------------------------------------0-|
|------------3-----------1-----------0---------------0-|

2°Mouvement (=1°Mouvement) : Phase 1
|------------------------------------------------|
|----5---5-------5---5-----5---5---5-----5---5---|
|--6---6---6---4---4---4-----4---4-----7---7---7-|
|------------------------------------------------|
|0-----------4-----------5-----------------------|
|------------------------------------0-----------|

|--------------------------------------4---4---4-|
|----5---5-------5---5-----5---5---5-----5---5---|
|--6---6---6---4---4---4-----4---4---------------|
|------------------------------------------------|
|0-----------4-----------5-----------------------|
|------------------------------------0-----------|

|----5---5-------4---4-------5---5-------4---4---|
|------------------------------------------------|
|--6---6---6---4---4---4---7---7---7---4---4---4-|
|------------------------------------------------|
|0-----------4-----------5-----------------------|
|------------------------------------0-----------|

|----------------------------0---0-------------------0-|
|----5---5-------5---5-----3---3---3-----5---5-------5-|
|--6---6---6---4---4---4---------------7---7---7-----7-|
|----------------------------------------------------0-|
|0---------------------------------------------------0-|
|------------3-----------1-----------0---------------0-|




2°Mouvement (=1°Mouvement) : Phase 2 (=Phase 1)
|------------------------------------------------|
|----5---5-------5---5-----5---5---5-----5---5---|
|--6---6---6---4---4---4-----4---4-----7---7---7-|
|------------------------------------------------|
|0-----------4-----------5-----------------------|
|------------------------------------0-----------|

|--------------------------------------4---4---4-|
|----5---5-------5---5-----5---5---5-----5---5---|
|--6---6---6---4---4---4-----4---4---------------|
|------------------------------------------------|
|0-----------4-----------5-----------------------|
|------------------------------------0-----------|

|----5---5-------4---4-------5---5-------4---4---|
|------------------------------------------------|
|--6---6---6---4---4---4---7---7---7---4---4---4-|
|------------------------------------------------|
|0-----------4-----------5-----------------------|
|------------------------------------0-----------|

|----------------------------0---0-------------------0-|
|----5---5-------5---5-----3---3---3-----5---5-------5-|
|--6---6---6---4---4---4---------------7---7---7-----7-|
|----------------------------------------------------0-|
|0---------------------------------------------------0-|
|------------3-----------1-----------0---------------0-|

2°Mouvement (=1°Mouvement) : Phase 3
|------------------------------------------------|
|----5---5-------5---5-------6---6-------5---5---|
|--5---5---5---4---4---4---7---7---7---4---4---4-|
|------------------------------------------------|
|0-----------3-----------5-----------------------|
|------------------------------------0-----------|

|----------------------------------------4---4---|
|----5---5-------5---5-------6---6-----5---5---5-|
|--5---5---5---4---4---4---7---7---7-------------|
|------------------------------------------------|
|0-----------3-----------5-----------------------|
|------------------------------------0-----------|

|----5---5-------4---4-------5---5-------4---4---|
|------------------------------------------------|
|--6---6---6---4---4---4---7---7---7---4---4---4-|
|------------------------------------------------|
|0-----------4-----------5-----------------------|
|------------------------------------0-----------|

|----------------------------0---0-------------------0-|
|----5---5-------5---5-----3---3---3-----5---5-------5-|
|--6---6---6---4---4---4---------------7---7---7-----7-|
|----------------------------------------------------0-|
|0---------------------------------------------------0-|
|------------3-----------1-----------0---------------0-|




3°Mouvement : Phase 1
|------------------------------------------------|
|----5---5-------5---5-----5---5---5-----5---5---|
|--6---6---6---4---4---4-----4---4-----7---7---7-|
|------------------------------------------------|
|0-----------4-----------5-----------------------|
|------------------------------------0-----------|

|--------------------------------------4---4---4-|
|----5---5-------5---5-----5---5---5-----5---5---|
|--6---6---6---4---4---4-----4---4---------------|
|------------------------------------------------|
|0-----------4-----------5-----------------------|
|------------------------------------0-----------|

|----5---5-------4---4-------5---5-------4---4---|
|------------------------------------------------|
|--6---6---6---4---4---4---7---7---7---4---4---4-|
|------------------------------------------------|
|0-----------4-----------5-----------------------|
|------------------------------------0-----------|

|----------------------------0---0-------------------0-|
|----5---5-------5---5-----3---3---3-----5---5-------5-|
|--6---6---6---4---4---4---------------7---7---7-----7-|
|----------------------------------------------------0-|
|0---------------------------------------------------0-|
|------------3-----------1-----------0---------------0-|

3°Mouvement : Phase 2
|----------------5---5-------------------5---5---|
|----5---5-----7---7---7-----5---5-----7---7---7-|
|--6---6---6---------------6---6---6-------------|
|------------------------------------------------|
|0-----------------------0-----------------------|
|------------------------------------------------|

|----------------5---5-------------------5---5-------5-|
|----5---5-----7---7---7-----5---5-----7---7---7-----7-|
|--6---6---6---------------6---6---6-----------------0-|
|----------------------------------------------------0-|
|0-----------------------0---------------------------0-|
|----------------------------------------------------0-|

#
Plaisirs d’Amour, Salento (morceau 1)
dernière modification: 06/08/2008 - 00:02
René Aubry : Plaisirs d’Amour, morceau 1
Transcription pour 3 guitares : Guil99
Liste de lecture :
Mesures 1 – 56 / Mesures 37 – 44 / Mesures 57 – 68 / Mesures 65 – 68
Mesures 69 – 76 / Mesures 65 – 68 / Mesures 65 – 68 / Mesures 69 – 78
Mesures 57 – 68 / Mesures 65 – 68 / Mesures 69 – 78 / Mesures 57 – 64
Mesure 79
(Un peu compliqué, mais sinon le morceau va faire plus de 20 pages)
Bien sûr, il y a d’autres instruments... mais c’est déjà ça.

[...et bien sûr faire un copier/coller sur doc word et changer la police en Courrier pour plus de lisibilité]

1 2 3 4
|--7---7---------|----------------|--7---7---------|----------------|
|8---------------|7-10--10--------|8---------------|7-10--10--------|
|----9-----9---9-|----9-----8---8-|----9-----9---9-|----9-----8---8-|
|--------10--9---|--------9---9---|--------10--9---|--------9---9---|
|----------------|----------------|----------------|----------------|
|----------------|----------------|----------------|----------------|
|
|----------------|----------------|----------------|----------------|
|----------------|----------------|----------------|----------------|
|----------------|----------------|----------------|----------------|
|----------------|----------------|----------------|----------------|
|----------------|----------------|----------------|----------------|
|----------------|----------------|----------------|----------------|
|
|----------------|----------------|----------------|----------------|
|----------------|----------------|----------------|----------------|
|----------------|----------------|----------------|----------------|
|----------------|----------------|----------------|----------------|
|----------------|----------------|----------------|----------------|
|----------------|----------------|----------------|----------------|

5 6 7 8
|----------------|--------------|----------------|--------------|
|--8---8---------|--7---7-8-----|--8---8---------|--7---7-8-----|
|9---9-----9---9-|7-----------9-|9---9-----9---9-|7-----------9-|
|--------10--9---|----9-----9---|--------10--9---|----9-----9---|
|----------------|--------------|----------------|--------------|
|----------------|--------------|----------------|--------------|
|
|----------------|--------------|----------------|--------------|
|--8---8---------|--------------|--8---8---------|--------------|
|9---9-----9---9-|----------9---|9---9-----9---9-|----------9---|
|--------10--9---|--7---7-9-----|--------10--9---|--7---7-9-----|
|----------------|9---10------7-|----------------|9---10------7-|
|----------------|--------------|----------------|--------------|
|
|----------------|--------------|----------------|--------------|
|----------------|--------------|----------------|--------------|
|----------------|--------------|----------------|--------------|
|----------------|--------------|----------------|--------------|
|----------------|--------------|----------------|--------------|
|----------------|--------------|----------------|--------------|

9 10 11 12
|--7---7---------|----------------|--7---7---------|----------------|
|8---------------|7-10--10--------|8---------------|7-10--10--------|
|----9-----9---9-|----9-----8---8-|----9-----9---9-|----9-----8---8-|
|--------10--9---|--------9---9---|--------10--9---|--------9---9---|
|----------------|----------------|----------------|----------------|
|----------------|----------------|----------------|----------------|
|
|----------------|----------------|----------------|----------------|
|----------------|----------------|----------------|----------------|
|----------------|--7-9-7---------|----------------|--7-9-7-----9-8-|
|------9-7---9---|--------7-9-----|------9-7---9---|----------9-----|
|10--10----10----|------------9---|10--10----10----|--------9-------|
|----------------|----------------|----------------|----------------|
|
|----------------|----------------|----------------|----------------|
|----------------|----------------|----------------|----------------|
|----------------|----------------|----------------|----------------|
|----------------|----------------|----------------|----------------|
|----------------|----------------|----------------|----------------|
|----------------|----------------|----------------|----------------|


13 14 15 16
|----------------|--------------|----------------|--------------|
|--8---8---------|--7---7-8-----|--8---8---------|--7---7-8-----|
|9---9-----9---9-|7-----------9-|9---9-----9---9-|7-----------9-|
|--------10--9---|----9-----9---|--------10--9---|----9-----9---|
|----------------|--------------|----------------|--------------|
|----------------|--------------|----------------|--------------|
|
|----------------|--------------|----------------|--------------|
|----------------|--------------|----------------|--------------|
|----------------|--------------|----------------|--------------|
|----9-----------|--------------|----9-----------|--------------|
|7-10--7---7-10--|--------7-----|7-10--7---7-10--|--------7-----|
|--------8-----8-|7-----7-------|--------8-----8-|7-----7-------|
|
|--101210--------|-101210-------|--101210--------|-101210-------|
|--------1012----|-------1012---|--------1012----|-------1012---|
|9---------------|--------------|9---------------|--------------|
|----------------|--------------|----------------|--------------|
|----------------|--------------|----------------|--------------|
|----------------|--------------|----------------|--------------|


17 18
|7-------7---------------7-------|--------7---------------7-|
|----8---------------7-------7---|----8---------------7-----|
|------------9---8---------------|9-----------9---8---------|
|--------------------------------|--------------------------|
|--------------------------------|--------------------------|
|--------------------------------|--------------------------|
|
|--------------------------------|--------------------------|
|--1---1---1---1---1---1---1---1-|--1---1---1---1---1---1---|
|4---4---4---4---4---4---4---4---|4---4---4---4---4---4---4-|
|--------------------------------|--------------------------|
|--------------------------------|--------------------------|
|--------------------------------|--------------------------|
|
|--------------------------------|--------------------------|
|12--------------12------12------|12------12------12------12|
|--------------------------------|--------------------------|
|--------------------------------|--------------------------|
|--------------------------------|--------------------------|
|--------------------------------|--------------------------|


19 20
|7-------7---------------7-------|--------7---------------7-|
|----8---------------7-------7---|----8---------------7-----|
|------------9---8---------------|9-----------9---8---------|
|--------------------------------|--------------------------|
|--------------------------------|--------------------------|
|--------------------------------|--------------------------|
|
|--------------------------------|--------------------------|
|--1---1---1---1---1---1---1---1-|--1---1---1---1---1---1---|
|4---4---4---4---4---4---4---4---|4---4---4---4---4---4---4-|
|--------------------------------|--------------------------|
|--------------------------------|--------------------------|
|--------------------------------|--------------------------|
|
|--------------------------------|--------------------------|
|12--------------12------12------|12------12------12------12|
|--------------------------------|--------------------------|
|--------------------------------|--------------------------|
|--------------------------------|--------------------------|
|--------------------------------|--------------------------|








21 22 23 24
|----------------|--------------|----------------|--------------|
|--8---8---------|--7---7-8-----|--8---8---------|--7---7-8-----|
|9---9-----9---9-|7-----------9-|9---9-----9---9-|7-----------9-|
|--------10--9---|----9-----9---|--------10--9---|----9-----9---|
|----------------|--------------|----------------|--------------|
|----------------|--------------|----------------|--------------|
|
|----------------|--------------|----------------|--------------|
|----------------|--------------|----------------|--------------|
|----------------|--------------|----------------|--------------|
|----9-----------|--------------|----9-----------|--------------|
|7-10--7---7-10--|--------7-----|7-10--7---7-10--|--------7-----|
|--------8-----8-|7-----7-------|--------8-----8-|7-----7-------|
|
|--101210--------|-101210-------|--101210--------|-101210-------|
|--------1012----|-------1012---|--------1012----|-------1012---|
|9---------------|--------------|9---------------|--------------|
|----------------|--------------|----------------|--------------|
|----------------|--------------|----------------|--------------|
|----------------|--------------|----------------|--------------|


25 26
|----7-------7-------------------|----------------------------|
|8-------------------------------|7---10------10--------------|
|--------9-----------9-------9---|--------9-----------8-----8-|
|----------------10------9-------|----------------9-------9---|
|--------------------------------|----------------------------|
|--------------------------------|----------------------------|
|
|--------------------------------|----------------------------|
|--------------------------------|----------------------------|
|--------------------------------|----------------------------|
|--------------------------------|----------------------------|
|7-9-7-9-7-9-7-9-7-9-7-9-7-9-7-9-|9-109-109-109-109-109-109---|
|--------------------------------|----------------------------|
|
|--------------------------------|----------------------------|
|--------------------------------|----------------------------|
|--------------------------------|----------------------------|
|--------------------------------|----------------------------|
|--------------------------------|----------------------------|
|--------------------------------|----------------------------|


27 28
|----7-------7-------------------|----------------------------|
|8-------------------------------|7---10------10--------------|
|--------9-----------9-------9---|--------9-----------8-----8-|
|----------------10------9-------|----------------9-------9---|
|--------------------------------|----------------------------|
|--------------------------------|----------------------------|
|
|--------------------------------|----------------------------|
|--------------------------------|----------------------------|
|--------------------------------|----------------------------|
|--------------------------------|----------------------------|
|7-9-7-9-7-9-7-9-7-9-7-9-7-9-7-9-|9-109-109-109-109-109-109---|
|--------------------------------|----------------------------|
|
|--------------------------------|----------------------------|
|--------------------------------|----------------------------|
|--------------------------------|----------------------------|
|--------------------------------|----------------------------|
|--------------------------------|----------------------------|
|--------------------------------|----------------------------|










29 30
|--------------------------------|--------------------------|
|----8-------8-----------8-------|----7-------7---8---------|
|9-------9-----------9-------9---|7-----------------------9-|
|----------------10--------------|--------9-----------9-----|
|--------------------------------|--------------------------|
|--------------------------------|--------------------------|
|
|--------------------------------|--------------------------|
|--------------------------------|--------------------------|
|--------------------------------|--------------------------|
|--------------------------------|--------------------------|
|7-9-7-9-7-9-7-9---7---7---7---7-|--9---9---9---9-9-109-107-|
|----------------8---8---8---8---|10--10--10--10------------|
|
|--------------------------------|--------------------------|
|----8-------8-----------8-------|--------------------------|
|9-------9-----------9-------9---|--------------------------|
|----------------10--------------|7---9-------9-------------|
|--------------------------------|--------10------9-109-107-|
|--------------------------------|--------------------------|


31 32
|--------------------------------|--------------------------|
|----8-------8-----------8-------|----7-------7---8---------|
|9-------9-----------9-------9---|7-----------------------9-|
|----------------10--------------|--------9-----------9-----|
|--------------------------------|--------------------------|
|--------------------------------|--------------------------|
|
|--------------------------------|--------------------------|
|--------------------------------|--------------------------|
|--------------------------------|--------------------------|
|--------------------------------|--------------------------|
|7-9-7-9-7-9-7-9---7---7---7---7-|--9---9---9---9-9-109-107-|
|----------------8---8---8---8---|10--10--10--10------------|
|
|--------------------------------|--------------------------|
|----8-------8-----------8-------|--------------------------|
|9-------9-----------9-------9---|--------------------------|
|----------------10--------------|7---9-------9-------------|
|--------------------------------|--------10------9-109-107-|
|--------------------------------|--------------------------|


33 34
|7-------7---------------7-------|--------7---------------7-|
|----8---------------7-------7---|----8---------------7-----|
|------------9---8---------------|9-----------9---8---------|
|--------------------------------|--------------------------|
|--------------------------------|--------------------------|
|--------------------------------|--------------------------|
|
|--------------------------------|--------------------------|
|--1---1---1---1---1---1---1---1-|--1---1---1---1---1---1---|
|4---4---4---4---4---4---4---4---|4---4---4---4---4---4---4-|
|--------------------------------|--------------------------|
|--------------------------------|--------------------------|
|--------------------------------|--------------------------|
|
|--------------------------------|--------------------------|
|12--------------12------12------|12------12------12------12|
|--------------------------------|--------------------------|
|--------------------------------|--------------------------|
|--------------------------------|--------------------------|
|--------------------------------|--------------------------|










35 36
|7-------7---------------7-------|--------7---------------7-|
|----8---------------7-------7---|----8---------------7-----|
|------------9---8---------------|9-----------9---8---------|
|--------------------------------|--------------------------|
|--------------------------------|--------------------------|
|--------------------------------|--------------------------|
|
|--------------------------------|--------------------------|
|--1---1---1---1---1---1---1---1-|--1---1---1---1---1---1---|
|4---4---4---4---4---4---4---4---|4---4---4---4---4---4---4-|
|--------------------------------|--------------------------|
|--------------------------------|--------------------------|
|--------------------------------|--------------------------|
|
|--------------------------------|--------------------------|
|12--------------12------12------|12------12------12------12|
|--------------------------------|--------------------------|
|--------------------------------|--------------------------|
|--------------------------------|--------------------------|
|--------------------------------|--------------------------|


37 38 39
|----3-------3-------3-------|----2-------2-------2-----|----0-------0-------0-------|
|--5---5---5---5---5---5-----|--3---3---3---3---3---3---|--1---1---1---1---1---1-----|
|4-------4-------4-------4---|2-------2-------2-------2-|2-------2-------2-------2---|
|----------------------------|--------------------------|----------------------------|
|----------------------------|--------------------------|----------------------------|
|----------------------------|--------------------------|----------------------------|
|
|----------------------------|--------------------------|----------------------------|
|----------------------------|--------------------------|----------------------------|
|----------------------------|--------------------------|----------------------------|
|----9-------9-------9-----9-|----7-------7-------7-----|----5-------5-------5-----5-|
|10------10------10------10--|9-------9-------9-------9-|7-------7-------7-------7---|
|----------------------------|--------------------------|----------------------------|
|
|----------------------------|--------------------------|----------------------------|
|----------------------------|--------------------------|----------------------------|
|----------------------------|--------------------------|----------------------------|
|----------------------------|--------------------------|----------------------------|
|----------------------------|--------------------------|----------------------------|
|----------------------------|--------------------------|----------------------------|


40 41 42
|----0-------0-------0-----|----3-------3-------3-------|----2-------2-------2-----|
|--0---0---0---0---0---0---|--5---5---5---5---5---5-----|--3---3---3---3---3---3---|
|0-------0-------0-------0-|4-------4-------4-------4---|2-------2-------2-------2-|
|--------------------------|----------------------------|--------------------------|
|--------------------------|----------------------------|--------------------------|
|--------------------------|----------------------------|--------------------------|
|
|--------------------------|----------------------------|--------------------------|
|--------------------------|----------------------------|--------------------------|
|--------------------------|----------------------------|--------------------------|
|----5-------5-------5-----|----9-------9-------9-----9-|----7-------7-------7-----|
|7-------7-------7-------7-|10------10------10------10--|9-------9-------9-------9-|
|--------------------------|----------------------------|--------------------------|
|
|--------------------------|--------10--------------10--|--------10-------------10-|
|--------------------------|----12------12------12----12|----10------10------10--10|
|--------------------------|----------------------------|--------------------------|
|--------------------------|----------------------------|--------------------------|
|--------------------------|----------------------------|--------------------------|
|--------------------------|----------------------------|--------------------------|










43 44 45
|----0-------0-------0-------|----0-------0-------0-----|----7-------7-------------------|
|--1---1---1---1---1---1-----|--0---0---0---0---0---0---|8-------------------------------|
|2-------2-------2-------2---|0-------0-------0-------0-|--------9-----------9-------9---|
|----------------------------|--------------------------|----------------10------9-------|
|----------------------------|--------------------------|--------------------------------|
|----------------------------|--------------------------|--------------------------------|
|
|----------------------------|--------------------------|--------------------------------|
|----------------------------|--------------------------|--------------------------------|
|----------------------------|--------------------------|--------------------------------|
|----5-------5-------5-----5-|----5-------5-------5-----|--------------------------------|
|7-------7-------7-------7---|7-------7-------7-------7-|7-9-7-9-7-9-7-9-7-9-7-9-7-9-7-9-|
|----------------------------|--------------------------|--------------------------------|
|
|--------8---------------8---|--------7---------------7-|--------------------------------|
|----10------10------10----10|----8-------8-------8-----|--------------------------------|
|----------------------------|--------------------------|--------------------------------|
|----------------------------|--------------------------|--------------------------------|
|----------------------------|--------------------------|--------------------------------|
|----------------------------|--------------------------|--------------------------------|


46 47
|----------------------------|----7-------7-------------------|
|7---10------10--------------|8-------------------------------|
|--------9-----------8-----8-|--------9-----------9-------9---|
|----------------9-------9---|----------------10------9-------|
|----------------------------|--------------------------------|
|----------------------------|--------------------------------|
|
|----------------------------|--------------------------------|
|----------------------------|--------------------------------|
|----------------------------|--------------------------------|
|----------------------------|--------------------------------|
|9-109-109-109-109-109-109---|7-9-7-9-7-9-7-9-7-9-7-9-7-9-7-9-|
|----------------------------|--------------------------------|
|
|----------------------------|--------------------------------|
|----------------------------|--------------------------------|
|----------------------------|--------------------------------|
|----------------------------|--------------------------------|
|----------------------------|--------------------------------|
|----------------------------|--------------------------------|


48 49
|----------------------------|--------------------------------|
|7---10------10--------------|----8-------8-----------8-------|
|--------9-----------8-----8-|9-------9-----------9-------9---|
|----------------9-------9---|----------------10--------------|
|----------------------------|--------------------------------|
|----------------------------|--------------------------------|
|
|----------------------------|--------------------------------|
|----------------------------|--------------------------------|
|----------------------------|--------------------------------|
|----------------------------|--------------------------------|
|9-109-109-109-109-109-109---|7-9-7-9-7-9-7-9---7---7---7---7-|
|----------------------------|----------------8---8---8---8---|
|
|----------------------------|--------------------------------|
|----------------------------|----8-------8-----------8-------|
|----------------------------|9-------9-----------9-------9---|
|----------------------------|----------------10--------------|
|----------------------------|--------------------------------|
|----------------------------|--------------------------------|










50 51
|--------------------------|--------------------------------|
|----7-------7---8---------|----8-------8-----------8-------|
|7-----------------------9-|9-------9-----------9-------9---|
|--------9-----------9-----|----------------10--------------|
|--------------------------|--------------------------------|
|--------------------------|--------------------------------|
|
|--------------------------|--------------------------------|
|--------------------------|--------------------------------|
|--------------------------|--------------------------------|
|--------------------------|--------------------------------|
|--9---9---9---9-9-109-107-|7-9-7-9-7-9-7-9---7---7---7---7-|
|10--10--10--10------------|----------------8---8---8---8---|
|
|--------------------------|--------------------------------|
|--------------------------|----8-------8-----------8-------|
|--------------------------|9-------9-----------9-------9---|
|7---9-------9-------------|----------------10--------------|
|--------10------9-109-107-|--------------------------------|
|--------------------------|--------------------------------|


52 53
|--------------------------|7-------7---------------7-------|
|----7-------7---8---------|----8---------------7-------7---|
|7-----------------------9-|------------9---8---------------|
|--------9-----------9-----|--------------------------------|
|--------------------------|--------------------------------|
|--------------------------|--------------------------------|
|
|--------------------------|--------------------------------|
|--------------------------|--1---1---1---1---1---1---1---1-|
|--------------------------|4---4---4---4---4---4---4---4---|
|--------------------------|--------------------------------|
|--9---9---9---9-9-109-107/|--------------------------------|
|10--10--10--10------------|--------------------------------|
|
|--------------------------|--------------------------------|
|--------------------------|12--------------12------12------|
|--------------------------|--------------------------------|
|7---9-------9-------------|--------------------------------|
|--------10------9-109-107-|--------------------------------|
|--------------------------|--------------------------------|


54 55
|--------7---------------7-|7-------7---------------7-------|
|----8---------------7-----|----8---------------7-------7---|
|9-----------9---8---------|------------9---8---------------|
|--------------------------|--------------------------------|
|--------------------------|--------------------------------|
|--------------------------|--------------------------------|
|
|--------------------------|--------------------------------|
|--1---1---1---1---1---1---|--1---1---1---1---1---1---1---1-|
|4---4---4---4---4---4---4-|4---4---4---4---4---4---4---4---|
|--------------------------|--------------------------------|
|--------------------------|--------------------------------|
|--------------------------|--------------------------------|
|
|--------------------------|--------------------------------|
|12------12------12------12|12--------------12------12------|
|--------------------------|--------------------------------|
|--------------------------|--------------------------------|
|--------------------------|--------------------------------|
|--------------------------|--------------------------------|










56
|--------7---------------7-|
|----8---------------7-----|
|9-----------9---8---------|
|--------------------------|
|--------------------------|
|--------------------------|
|
|--------------------------|
|--1---1---1---1---1---1---|
|4---4---4---4---4---4---4-|
|--------------------------|
|--------------------------|
|--------------------------|
|
|--------------------------|
|12------12------12------12|
|--------------------------|
|--------------------------|
|--------------------------|
|--------------------------|


57 58
|----8-------8-------8-----8-|--------------------------------|
|10--------------10----------|----8-------8-------8-------8---|
|--------9---------------9---|9---------------9---------------|
|----------------------------|--------9---------------9-------|
|----------------------------|--------------------------------|
|----------------------------|--------------------------------|
|
|----------------------------|--------------------------------|
|----------------------------|--------------------------------|
|--5---5---5---5---5---5-----|--------------------------------|
|7---7---7---7---7---7---7---|--5---5---5---5---5---5---5---5-|
|----------------------------|7---7---7---7---7---7---7---7---|
|----------------------------|--------------------------------|
|
|----------------------------|--------------------------------|
|----------------------------|--------------------------------|
|----------------------------|--------------------------------|
|----------------------------|--------------------------------|
|----------------------------|--------------------------------|
|----------------------------|--------------------------------|


59 60
|----8-------8-------8-----8-|--------------------------------|
|10--------------10----------|----8-------8-------8-------8---|
|--------9---------------9---|9---------------9---------------|
|----------------------------|--------9---------------9-------|
|----------------------------|--------------------------------|
|----------------------------|--------------------------------|
|
|----------------------------|--------------------------------|
|----------------------------|--------------------------------|
|--5---5---5---5---5---5-----|--------------------------------|
|7---7---7---7---7---7---7---|--5---5---5---5---5---5---5---5-|
|----------------------------|7---7---7---7---7---7---7---7---|
|----------------------------|--------------------------------|
|
|----------------------------|--------------------------------|
|----------------------------|0---0-1-0---0-1-0---0-1-0---0-1-|
|----------------------------|--2-------2-------2-------2-----|
|----------------------------|--------------------------------|
|----------------------------|--------------------------------|
|----------------------------|--------------------------------|










61 62
|----8-------8-------8-----8-|--------------------------------|
|10--------------10----------|----8-------8-------8-------8---|
|--------9---------------9---|9---------------9---------------|
|----------------------------|--------9---------------9-------|
|----------------------------|--------------------------------|
|----------------------------|--------------------------------|
|
|----------------------------|--------------------------------|
|----------------------------|--------------------------------|
|--5---5---5---5---5---5-----|--------------------------------|
|7---7---7---7---7---7---7---|--5---5---5---5---5---5---5---5-|
|----------------------------|7---7---7---7---7---7---7---7---|
|----------------------------|--------------------------------|
|
|----------------------------|--------------------------------|
|----------------------------|--------------------------------|
|2---------------------------|--------------------------------|
|----------------------------|--------------------------------|
|----------------------------|--------------------------------|
|----------------------------|--------------------------------|


63 64
|----8-------8-------8-----8-|--------------------------------|
|10--------------10----------|----8-------8-------8-------8---|
|--------9---------------9---|9---------------9---------------|
|----------------------------|--------9---------------9-------|
|----------------------------|--------------------------------|
|----------------------------|--------------------------------|
|
|----------------------------|--------------------------------|
|----------------------------|--------------------------------|
|--5---5---5---5---5---5-----|--------------------------------|
|7---7---7---7---7---7---7---|--5---5---5---5---5---5---5---5-|
|----------------------------|7---7---7---7---7---7---7---7---|
|----------------------------|--------------------------------|
|
|----------------------------|--------------------------------|
|----------------------------|12--121312--121312--121312--1213|
|----------------------------|--14------14------14------14----|
|----------------------------|--------------------------------|
|----------------------------|--------------------------------|
|----------------------------|--------------------------------|


65 66
|--------------------------------|--------------------------------|
|----8-----8---------8-------8---|----7-----7---------7-------7---|
|--9-----9---------9-------9-----|--7-----7---------7-------7-----|
|9-----9-----9-9---------9-----9-|7-----7-----7-7---------7-----7-|
|--------------------------------|--------------------------------|
|--------------------------------|--------------------------------|
|
|--------------------------------|--------------------------------|
|12----12----12101210------------|10----10----108-108-------------|
|----------------------12------11|----------------------11------9-|
|--------------------------------|--------------------------------|
|--------------------------------|--------------------------------|
|--------------------------------|--------------------------------|
|
|--------------------------------|--------------------------------|
|12------------------------------|--------------------------------|
|--------------------------------|--------------------------------|
|9------9-----9---7--------------|7------7-----7------------------|
|------------------------10----9-|-----------------10-----9-----7-|
|--------------------------------|--------------------------------|










67 68
|----5-----5---------5-------5---|--------5-----------5-------------------5-----------5---------|
|--5-----5---------5-------5-----|----5-----------5-------------------5-----------5-------------|
|5-----5-----5-5---------5-----5-|5-----------5-----------5-------7-----------7-----------7-----|
|--------------------------------|--------------------------------------------------------------|
|--------------------------------|--------------------------------------------------------------|
|--------------------------------|--------------------------------------------------------------|
|
|8-----8-----8-7-8-7-----------7-|8-8-8-8-8-8-8-8-8-8-8-8-8-8-8-8-101010101010101010101010101010|
|----------------------10--------|--------------------------------------------------------------|
|--------------------------------|--------------------------------------------------------------|
|--------------------------------|--------------------------------------------------------------|
|--------------------------------|--------------------------------------------------------------|
|--------------------------------|--------------------------------------------------------------|
|
|--------------------------------|--------------------------------------------------------------|
|--------------------------------|--------------------------------------------------------------|
|--------------------------------|--------------------------------7-----------------------------|
|10----10----10----9---7-------9-|10------------------------------------------------------------|
|--------------------------------|--------------------------------------------------------------|
|--------------------------------|--------------------------------------------------------------|


69 70
|--------------------------------|--------------------------------|
|----8-----8---------8-------8---|----8-----8---------8-------8---|
|--9-----9---------9-------9-----|--9-----9---------9-------9-----|
|9-----9-----9-9---------9-----9-|9-----9-----9-9---------9-----9-|
|--------------------------------|--------------------------------|
|--------------------------------|--------------------------------|
|
|--------------------------------|--------------------------------|
|8-----8-----8-7-8-7-----------7-|8-----8-----8-7-8-7-----------7-|
|----------------------9---------|----------------------9---------|
|--------------------------------|--------------------------------|
|--------------------------------|--------------------------------|
|--------------------------------|--------------------------------|
|
|--------------------------------|--------------------------------|
|--------------------------------|--------------------------------|
|--------------------------------|--------------------------------|
|9-----9-----9-----7-----------7-|9-----9-----9-----7-----------7-|
|-----------------------10-------|-----------------------10-------|
|--------------------------------|--------------------------------|


71
|----------------------------------------------------------------|
|--------7-----------7-------------------7-----------7-----------|
|----7-----------7-------------------7-----------7---------------|
|7-----------7-----------7-------7-----------7-----------7-------|
|----------------------------------------------------------------|
|----------------------------------------------------------------|
|
|----------------------------------------------------------------|
|----------------------------------------------------------------|
|7-7-7-7-7-7-7-7-7-7-7-7-7-7-7-7---------------------------------|
|--------------------------------9-9-9-9-9-9-9-9-9-9-9-9-9-9-9-9-|
|----------------------------------------------------------------|
|----------------------------------------------------------------|
|
|----------------------------------------------------------------|
|----------------------------------------------------------------|
|----------------------------------------------------------------|
|9---------------------------------------------------------------|
|----------------------------------------------------------------|
|----------------------------------------------------------------|










72
|----------------------------------------------------------------|
|--------5-----------5-------------------5-----------5-----------|
|----5-----------5-------------------5-----------5---------------|
|7-----------7-----------7-------7-----------7-----------7-------|
|----------------------------------------------------------------|
|----------------------------------------------------------------|
|
|----------------------------------------------------------------|
|----------------------------------------------------------------|
|9-9-9-9-9-9-9-9-9-9-9-9-9-9-9-9-9-9-9-9-9-9-9-9-9-9-9-9-9-9-9-9-|
|----------------------------------------------------------------|
|----------------------------------------------------------------|
|----------------------------------------------------------------|
|
|----------------------------------------------------------------|
|----------------------------------------------------------------|
|----------------------------------------------------------------|
|9---------------------------------------------------------------|
|----------------------------------------------------------------|
|----------------------------------------------------------------|


73 74
|--------------------------------|--------------------------------|
|----8-----8---------8-------8---|----8-----8---------8-------8---|
|--9-----9---------9-------9-----|--9-----9---------9-------9-----|
|9-----9-----9-9---------9-----9-|9-----9-----9-9---------9-----9-|
|--------------------------------|--------------------------------|
|--------------------------------|--------------------------------|
|
|--------------------------------|--------------------------------|
|8-----8-----8-7-8-7-----------7-|8-----8-----8-7-8-7-----------7-|
|----------------------9---------|----------------------9---------|
|--------------------------------|--------------------------------|
|--------------------------------|--------------------------------|
|--------------------------------|--------------------------------|
|
|--------------------------------|--------------------------------|
|--------------------------------|--------------------------------|
|--------------------------------|--------------------------------|
|9-----9-----9-----7-----------7-|9-----9-----9-----7-----------7-|
|-----------------------10-------|-----------------------10-------|
|--------------------------------|--------------------------------|


75
|----------------------------------------------------------------|
|--------7-----------7-------------------7-----------7-----------|
|----7-----------7-------------------7-----------7---------------|
|7-----------7-----------7-------7-----------7-----------7-------|
|----------------------------------------------------------------|
|----------------------------------------------------------------|
|
|----------------------------------------------------------------|
|----------------------------------------------------------------|
|7-7-7-7-7-7-7-7-7-7-7-7-7-7-7-7---------------------------------|
|--------------------------------9-9-9-9-9-9-9-9-9-9-9-9-9-9-9-9-|
|----------------------------------------------------------------|
|----------------------------------------------------------------|
|
|----------------------------------------------------------------|
|----------------------------------------------------------------|
|----------------------------------------------------------------|
|9---------------------------------------------------------------|
|----------------------------------------------------------------|
|----------------------------------------------------------------|










76
|----------------------------------------------------------------|
|--------5-----------5-------------------5-----------5-----------|
|----5-----------5-------------------5-----------5---------------|
|7-----------7-----------7-------7-----------7-----------7-------|
|----------------------------------------------------------------|
|----------------------------------------------------------------|
|
|----------------------------------------------------------------|
|1010101010101010101010101010101010101010101010101010101010101010|
|----------------------------------------------------------------|
|----------------------------------------------------------------|
|----------------------------------------------------------------|
|----------------------------------------------------------------|
|
|----------------------------------------------------------------|
|10--------------------------------------------------------------|
|----------------------------------------------------------------|
|----------------------------------------------------------------|
|----------------------------------------------------------------|
|----------------------------------------------------------------|


77 78 79
|----12----12------7-----7---|----5-----5-------3-----3---|----------------------|
|--13----13------8-----8-----|--5-----5-------5-----5-----|----------------------|
|14----14----149-----9-----9-|5-----5-----5-4-----4-----4-|----------------------|
|----------------------------|----------------------------|----------------------|
|----------------------------|----------------------------|----------------------|
|----------------------------|----------------------------|----------------------|
|
|5---------------------------|----------------------------|----------------------|
|6---------------------------|----------------------------|----------------------|
|7---------------------------|----------------------------|----------------------|
|7---------------------------|----------------------------|----------------------|
|5---------------------------|----------------------------|----------------------|
|5---------------------------|----------------------------|----------------------|
|
|----------------------------|----------------------------|----------------------|
|----------------------------|----------------------------|12--------------------|
|----9-----9-----------------|----9-----9-----------------|----------------------|
|--10----10--------9-----9---|--10----10--------9-----9---|----------------------|
|12----12----12--10----10----|12----12----12--10----10----|----------------------|
|--------------12----12----12|--------------12----12----12|----------------------|


geostras

1 photo
#
L'intention est bonne mais tu es venu un peu tard, son topic date de 2004 icon_redface
Pense à regarder la date de publication du dernier message la prochaine fois wink

#
Pas perdu pour tout le monde!!! :)

1 membre aime ça


nouveau message Répondre Recherche


plan Plan du Forum Tablatures||Tags : aubry, rene, des, tout, connaissent, connu, peu, cas, compositeur