Comment jouer Lithium de Nirvana


nouveau message Répondre
Recherche

#
Bonjour,

Je suis débutant, j'ai une guitare folk et j'essaie de jouer lithium de nirvana, mais j'ai quelques difficultés à placer mes doigts.
Voici la tab que j'uilise :
http://www.partoch.com/files/hauttabf.asp?fichier=2808686

Quelqu'un peu m'expliquer comment positionner mes doigts

Merci d'avance





#
Personne ne veux me répondre ??
Ou alors personne ne sais jouer lithium ...

#
smiley-guitar

Salut Binogra !

J'ai déjà essayé auparavant de te répondre mais en fait le problème c'est que je ne comprends pas ce qui te pose problème wobble Car dans cette tab, là où tu dois placer tes doigts est indiqué. Peut être ne sais tu pas lire une tablature ? Par exemple :
(1ère mesure de Lithium)
E---------------------------------------
B---------------------------------------
G--------------------------------1-----
D------------2-------------------------
A---------------------------------------
E----0-----------0-------4----------4-
Ce qui donne = > corde mi à vide (6ème corde), 2ème case 4ème corde (ré), à nouveau la 6ème corde à vide, puis 4ème case 6ème corde, 1ère case 3ème corde (sol) et encore une fois 4ème case de la 6ème corde.
Si tu n'y arrive vraiment pas tu peux te servir du manche de la guitare au dessus de la partition (quand tu fais jouer la tab par le logiciel, les notes ou accords à jouer sont indiqués).

J'espère avoir répondu à ta question, si ce n'est pas le cas ou que tu as d'autres problèmes n'hésites pas à me le faire savoir smile

smiley-guitar

#
Bonjour,

Ce que j'ai un peu de mal à comprendre, c'est quel doigt mettre sur chaque case. J'essaie de placer mes doigts de la facon suivante :

corde mi à vide (6ème corde) : pas de doigt (facile wobble )
2ème case 4ème corde (ré) : index
à nouveau la 6ème corde à vide : rien
puis 4ème case 6ème corde : petit doigt
1ère case 3ème corde (sol) : index
et encore une fois 4ème case de la 6ème corde. : petit doigt

le probleme c'est que pour appuyer le petit doigt, puis l'index, puis le petit doigt je galère beaucoup, et puis c'est super lent.
J'utilise pas les bons doigts ou alors je n'ai pas encore assez d'expérience pour passer ca rapidement ?

Merci

Binogra

#
Utilise le barré
E--------------------------------
B-------------------------------
G-------------------------------
D-------2------------6----------
A------------------------0----4-
E---0-------0----4-------------

^
Barré =====> D---------6---------------------
A---------6---------------------
E--------- 4---------------------

#
Alors tu a deux façon de jouer :
1) Celle ou te te sent le mieux. Utilise les doigts que tu veux.
2) La plus commune, c'est à dire essaye d'utiliser 1 doigt par case.
index = pour la case 1
majeur = pour la case 2
annulaire = pour la case 3
petit doigt = pour la case 4
Et tu deplace ta main en fonction des notes a jouer.

Moi perso j'ai commencer avec la methode que je sentait le mieu (oui j'ai appris seul a jouer)
Mais maintenant je prend des cours depuis peu et j'essaye de bien placer mes doigts (et oui car le Pb c'est que l'on prend de mauvaise habitude).

Mais bon demande a Hendrix ce qu'il en pense lol

#
eh bien c simple: qd sur la tabs tu a un 2 c'est le deuxiemme doigt qd tu a un 3 c le troisieme et ainsi de suite. si tu a des 5 ou 6 ou autres c'est que c'est un baré apres fo voir ca depen lequel c.voili voilou jespere tavoir aidé

#
pourquoi vou vou prenez la tete? ca pa la bonne tab!
ya une tabs plus facile mais g la fleme de la montrer wink

#
voila la tab de lithium:
|-------------------------------------------------------------------------------------|
|-------------------------------------------------------------------------------------|
|-----------------------6----6-6-------------5----5-5-7777-4----4-4-7777-|
|-2----2-2-6----6-6-6----6-6-7----7-7-5----5-5-7777-4----4-4-7777-|
|-2----2-2-6----6-6-4----4-4-7----7-7-3----3-3-5555-2----2-2-5555-|
|-0----0-0-4----4-4------------5----5-5----------------------------------------|

en réalité c'est la partie "heavy" lorsque kurt fait "yeah yeah.." qui se joue à la gratte électrique. smiley-guitar
mais ç'est le meme rithme principal que l'intro.

tu peut aussi la joué à l'acoustique.
teste ça et tu verra ça sonne bien. wink

ne soit pas tro efrayé en voyant ma tab ! elle est pas si dur qu'elle en a l'air!!
joue a ton rithme et t'y arivera. razz

#
tu pe la jouer comme ca aussi


1:-----------------------------------------------------------------
2:-----------------------------------------------------------
3:-----------------------2------------------7--------------7
4:---------------6----2---2------5------7--------4-----7-
5:-------------4---0----------3-----5-------2-------5----
6:--0-0-4--0---------------------------------------------------

icon_cheesygrin

#
Y a une nouvelle tab pour ce maurceaux je crois dans les nouveauté! wink aller voir elle est pas mal! désolé je n'ai pas le lien!

#
Pour ceux qui cherchent encore la tab de Lithium :

http://www.guitaretab.com/n/nirvana/13407.html

Celle ci est la plus juste de toutes celles que j'ai pu voir... ( Deux trois petits trucs a changer mais vous trouverez tout seul, c'est le meilleur moyen de l'apprendre... :)


nouveau message Répondre Recherche


plan Plan du Forum Solfège||Tags : comment, nirvana, lithium, jouer, difficultes, placer, quelques, doigts, folk