recherche intro


nouveau message Répondre
Recherche

#
salut je ovudrais faire une intro pour une suite d'accords mais je sais pas comment faire
si quelqu'un veut bien m'aider...
Mes accords c'est
C G Am F Am F Em G

J'ai commence une intro mais ca fait un peu beaucoup de notes pour une intro.



|-------------0---------------|
|----------------1-----1------|
|----------0--------0---------| x2 c'est un Do
|-----------------------------|
|-------3---------------------|
|-----------------------------|

|-------------3---------------|
|-----------------------------|
|----------0-----0-----0------| x2 c'est un Sol
|-------------------0---------|
|-------2---------------------|
|-----------------------------|

|-------------0---------------|
|----------------1-----1------|
|----------2--------2---------| x2 c'est un Lam
|-----------------------------|
|-------0---------------------|
|-----------------------------|

|-------------1---------------|
|----------------1-----1------|
|----------2--------2---------| x2 c'est un Fa
|-----------------------------|
|-------3---------------------|
|-----------------------------|

On répete le Fa et la Lam

|-------------0---------------|
|-----------------------------|
|----------0-----0-----0------| x2 C'est un Mim
|-------------------0---------|
|-----------------------------|
|-------3---------------------|

|-------3-------3------3------|
|-----------------------------|
|-----------------------------| là je commence les accords
|-----------------------------|
|-----------------------------|
|-----------------------------|






nouveau message Répondre Recherche


plan Plan du Forum Tablatures||Tags : -----, intro, --------, accords, commence, lam, bien, veut, fait