Tablature Temps à Nouveau Aubert


nouveau message Répondre
Recherche

#
Bonjour, j'aimerais savoir si quelqu'un a la tablature du solo de Temps à nouveau de Jean-Louis Aubert. Merci smiley-guitar



thevince58

Jeune tabber
1 photo
#
E||--10----10----10----10----|--10----13----14----------|
B||--------------------------------|-----------------------13----|
G||--------------------------------|------------------------------|
D||--------------------------------|------------------------------|
A||--------------------------------|------------------------------|
E||--------------------------------|------------------------------|


-------------------------------|-------------------------------|
--15-----13-----------------|-----------------------10----|
----------------15----14----|--11----12----11----------|
-------------------------------|-------------------------------|
-------------------------------|-------------------------------|
-------------------------------|-------------------------------|



--10----12----14----15----|--17----19----21b---||
--------------------------------|-------------------------||
--------------------------------|-------------------------||
--------------------------------|-------------------------||
--------------------------------|-------------------------||
--------------------------------|-------------------------||



Il n'est pas de moi mais voila ce que j'ai trouvé !
Avec un gros travail au "copier-coller"!

#
je te remercie je vais essayer


nouveau message Répondre Recherche


plan Plan du Forum Tablatures||Tags : tablature, aubert, nouveau, temps, bonjour, aimerais, savoir, merci, jean-louis