seven nation army - smoke on the water, les vraies :D


nouveau message Répondre
Recherche

chrys73

3 photos
#
bon voila, ca me stresse de voir des versions sois disantes comme l'originale de ces deux morceaux (les pus deformes le plus souvent j'trouve), alors que ca ne sonne pas du tout, donc je mets les vraies (j'en suis trop sure, et mon prof de gratte me les a confirmees ... smile_cool ) icon_cheesygrin

smoke on the water :
e|----------------------------|
B|----------------------------|
G|----------------------------|
D|-0-3-5--0-3-6-5--0-3-5-3-0--|
A|-0-3-5--0-3-6-5--0-3-5-3-0--|
E|----------------------------|


et seven nation army :
e|-----------------|
B|-----------------|
G|-----------------|
D|------0----------|
A|--2-2---2-0------|
E|------------3-2--|

pre refrain :

e|-----------------------------------|
B|-----------------------------------|
G|-----------------------------------|
D|-----------------------------------|
A|-----------------------------------|
E|--3-3-3-3-3-3-3-3-5-5-5-5-5-5-5-5--|

au refrain :

e|-------------------|
B|-------------------|
G|-------------------|
D|------0------------|
A|--2-2---2-0---0----|
E|------------3---3-2|


voila icon_cheesygrin wink smiley-guitar

[edit]



"S'accrocher des oreilles au coeur pour que l'on puisse enfin s'entendre ..."
... la rue ketanou
#
non pas du tout sa endesaccord3

smoke on the water il faut plus de rock cest plutot

|--------------------|
|--------------------|
|--------------------|
|----3-5---3-6-5---|
|-5-3-5-5-3-6-5-|
|-5-------5----------|

magiclem007

4 photos
#
ticouneds1 a écrit :
non pas du tout sa endesaccord3

smoke on the water il faut plus de rock cest plutot

|--------------------|
|--------------------|
|--------------------|
|----3-5---3-6-5---|
|-5-3-5-5-3-6-5-|
|-5-------5----------|


endesaccord1

lol
chrys73

3 photos
#
je te la certifie, achete le songbook et tu verras par toi meme wink

ecoute la chanson, prends ta gratte, mets une bonne disto et va a l'appel de ton oreille, tu verras icon_cheesygrin

"S'accrocher des oreilles au coeur pour que l'on puisse enfin s'entendre ..."
... la rue ketanou
#
jai le livre de deep purple plus grands succes et il est dedans alors hammer

chrys73

3 photos
#
mon prof de gratte a lui aussi le bouquin de deep purple, entre autres ... wink

bref icon_cheesygrin

"S'accrocher des oreilles au coeur pour que l'on puisse enfin s'entendre ..."
... la rue ketanou
philarmonie

5 photos
#
magiclem007
magiclem007 a écrit :

ticouneds1 a écrit :
non pas du tout sa endesaccord3

smoke on the water il faut plus de rock cest plutot

|--------------------|
|--------------------|
|--------------------|
|----3-5---3-6-5---|
|-5-3-5-5-3-6-5-|
|-5-------5----------|


endesaccord1


+1 (voir +20)

Je sais pas où tu as eu ton songbook de Deep Purple ticoune, mais tu t'es fait avoir. Il suffit d'écouter l'original 5 secondes pour voir que la version de Chrys est la bonne.
Par contre pour "seven nation army" il me semble que tu t'es trompé pour le riff principal, il faut le décaler d'une corde vers le bas. Personnelement je préfère le jouer entièrement sur la corde de La, comme ça:

E||------------------------|--------------------|
B||------------------------|--------------------|
G||------------------------|--------------------|
D||--9------9--12---9---7--|--5--------4--------|
A||--7------7--10---7---5--|--3--------2--------|
E||------------------------|--------------------|



------------------------|----------------------||
------------------------|----------------------||
------------------------|----------------------||
--9------9--12---9---7--|--5---7---5--4--------||
--7------7--10---7---5--|--3---5---3--2--------||
------------------------|----------------------||


#
je lai télécharcger sur internet mon livre smyleybleu chanteur

guitare killer

7 messages
#
pour seven nation army vous etes a l'ouest il joue le refrain avec un bottleneck il suffit de le voir en concert.

http://world-guitare.miniville.fr
la ville des guitaristes
#
24/10/2005 21:04:41

05/12/2008 17:13:06

Retour vers le futur épisode 4 ? =P


#
Ah ouai violent Oo 3 ans quand même....

bad-boysgreg

9 photos
#
Jvoue pas mal le déterrage lol

guitare killer

7 messages
#
xcuse javais pas vu

http://world-guitare.miniville.fr
la ville des guitaristes
chipie.foxtrot

Modérateur
#
oui, je pense que les topics anciens remontent en surface inexorablement wink
il n'en demeure pas moins que vrai tab ne veux rien dire du tout endesaccord1

je joue de la guitare à six schtroumphs !

nouveau message Répondre Recherche


plan Plan du Forum Tablatures||Tags : ---, les, seven, voila, vraies, nation, refrain, army, smoke