Tablature pour le theme d'hercule poirot !


nouveau message Répondre
Recherche

dream theater 74

3 photos
#
J'avoue être un grand fan de cette série et je voudrais apprendre le theme wink : http://www.youtube.com/watch?v=Hmx6dQJf_rk~~feature=player_detailpage Voici la piste en question, merci d'avance si vous trouvez, perso je n'ai rien trouver mis a part ici sur partoch, mais il y a uniquement le theme au saxo et il n'y a pas tout les effets de jeu endesaccord3 De plus j'aimerais pouvoir jouer le piano du début



A vendre: fast fret défoncer avec le chiffon noir de crasse troll_1
dream theater 74

3 photos
#
J'up sans grand espoir endesaccord3

A vendre: fast fret défoncer avec le chiffon noir de crasse troll_1
rankxerox

Hyper Tabber
Petit Downloader
1 message
#
Salut

en voilà un petit bout :



|--------------------------------|--------------------------------|
|------------------------3-------|----------------3---------------|
|--------2p--0---------------3---|--------2p--0-----------------2p|
|--------------------------------|----------------0---------------|
|0---------------0---------------|0-------------------------------|
|----3---------------3-----------|----3---------------------------|


|----------------3-----------6---|5-----------6---5h5-------------|
|--------------3-----------------|----8---------------8-------8---|
|0-----2-3-----------------------|--------------------------------|
|--------------------------------|--------------------------------|
|--------------------------------|6---------------6---------------|
|3---------------1---------------|--------------------------------|


|--------------------------------|--------------------------------|
|6h6---8-------8-------8-------3-|4---------------3---------------|
|--------8-------7-------5-------|--------3-----------------------|
|--------------------------------|------------------------0-------|
|--------------------------------|--------------------------------|
|8---------------6---------------|5-------------------------------|


|----------------3-----------6---|5-----------6---5h5-------------|
|--------------3-----------------|----8---------------8-------8---|
|0-----2-3-----------------------|--------------------------------|
|--------------------------------|--------------------------------|
|--------------------------------|6---------------6---------------|
|3---------------1---------------|--------------------------------|


|--------------------------------|--------------------------------|
|6h6---8-------8-------8-------3-|4---------------3---------------|
|--------8-------7-------5-------|--------3-----------------------|
|--------------------------------|------------------------0-------|
|--------------------------------|--------------------------------|
|8---------------6---------------|5-------------------------------|


Est-ce que je peux te souhaiter bon courage ?

une autre version plus lisible :
http://fr.calameo.com/read/000332609115fb591e497

bon dimanche

RX

nouveau message Répondre Recherche


plan Plan du Forum Tablatures||Tags : theme, voici, feature, watch, piste, www, avance, tablature, question