Demande de tablature smoke on the water


nouveau message Répondre
Recherche

#
Salut tout le monde !! Je viens ici vouds demander de l'aide pour une video d'un mec qui a repris smoke on the water en acoustique et je dois vous avouer que je suis fan !
Je n'arrive pas a comprendre ce qu'il fait des le 4eme accord.. je suis vraiment mauvais pour essayer de recréer a l'oreille en plus.. donc est ce qu'une âme charitable serait prête a m'en faire une tab??
Voici la video : http://www.youtube.com/watch?v=OW3oLczYL1Y



mg97

2 photos
#
Salut! Je t'es trouvé la tablature en entière. J'espère que ça te conviendra! A+


e|---------------|---------------|---------------|---------------|
B|---------------|---------------|---------------|---------------|
G|--0--3--5----0-|---3----6---5--|--0--3--5---3--|----0----------| X6
D|--0--3--5----0-|---3----6---5--|--0--3--5---3--|----0----------|
A|---------------|---------------|---------------|---------------|
E|---------------|---------------|---------------|---------------|


e|-----------------|-----------------|-----------------|-----------------|
B|-----------------|-----------------|-----------------|-----------------|
G|-----------------|-----------------|-----------------|-----------------|
D|---5-5-----5-5---|---5-5-----5-5---|---5-5-----3-3---|---5-5-----5-5---|
A|---5-5-----5-5---|---5-5-----5-5---|---5-5-----3-3---|---5-5-----5-5---| X4
E|---3-3-----3-3---|---3-3-----3-3---|---3-3-----1-1---|---3-3-----3-3---|


e|----------------|----------------|-------------------------|-------------------------|
B|----------------|----------------|-------------------------|-------------------------|
G|---5------------|----------------|-------------------------|-------------------------|
D|---5------------|---6------------|-------------------------|-------------------------|
A|---3------------|---6------------|------1-----1------------|-----1-----1-------------| X1
E|----------------|---4------------|---3-----3-----3--1--3---|--3-----3-----3--1-------|


e|----------------|----------------|
B|----------------|----------------|
G|---5------------|----------------|
D|---5------------|---6------------|
A|---3------------|---6------------| X1
E|----------------|---4------------|


e|---------------|---------------|---------------|---------------|
B|---------------|---------------|---------------|---------------|
G|--0--3--5----0-|---3----6---5--|--0--3--5---3--|----0----------| X2
D|--0--3--5----0-|---3----6---5--|--0--3--5---3--|----0----------|
A|---------------|---------------|---------------|---------------|
E|---------------|---------------|---------------|---------------|


e|-----------------|-----------------|-----------------|-----------------|
B|-----------------|-----------------|-----------------|-----------------|
G|-----------------|-----------------|-----------------|-----------------|
D|---5-5-----5-5---|---5-5-----5-5---|---5-5-----3-3---|---5-5-----5-5---|
A|---5-5-----5-5---|---5-5-----5-5---|---5-5-----3-3---|---5-5-----5-5---| X4
E|---3-3-----3-3---|---3-3-----3-3---|---3-3-----1-1---|---3-3-----3-3---|


e|----------------|----------------|-------------------------|-------------------------|
B|----------------|----------------|-------------------------|-------------------------|
G|---5------------|----------------|-------------------------|-------------------------|
D|---5------------|---6------------|-------------------------|-------------------------|
A|---3------------|---6------------|------1-----1------------|-----1-----1-------------| X1
E|----------------|---4------------|---3-----3-----3--1--3---|--3-----3-----3--1-------|


e|----------------|----------------|
B|----------------|----------------|
G|---5------------|----------------|
D|---5------------|---6------------|
A|---3------------|---6------------| X1
E|----------------|---4------------|


e|---------------|---------------|---------------|---------------|
B|---------------|---------------|---------------|---------------|
G|--0--3--5----0-|---3----6---5--|--0--3--5---3--|----0----------| X2
D|--0--3--5----0-|---3----6---5--|--0--3--5---3--|----0----------|
A|---------------|---------------|---------------|---------------|
E|---------------|---------------|---------------|---------------|


Solo (enjoy !!! =D)

e|--------------|--9p8--6-------6--|
B|----6-8-------|-----------8------|
G|--7-----------|------------------|
D|--------------|------------------|
A|--------------|------------------|
E|--------------|------------------|

e|-----------6--8--6--5-----5--------------------------------6--8--6--8--|--8----6------8-6---------------------------------------------------------|
B|-----6--8--------------8-----8--6--8-----6--6--8--6--8--8--------------|-----8---7--8-----10-8-7-6------------------------------------------------|
G|--7----------------------------------8---------------------------------|---------------------------7-5-------------8-7-8-5------------------------|
D|-----------------------------------------------------------------------|--------------------------------8-5--8-7---------8-10-8-7-8-7-5-5---------|
A|-----------------------------------------------------------------------|--------------------------------------------------------------------------|
E|-----------------------------------------------------------------------|--------------------------------------------------------------------------|

e|---------------------------------------------|---------------6-8--8-10-8-6-8------6-----8-6---8-6---8-10-11-13-15---|
B|------8-6-8--8-6-----------------------------|---5-6-8---6-8-----------------8--8---7-8-----8-----8-----------------|
G|--6-7------------7-5------7-5--7-7--7-7--7---|-7-------7------------------------------------------------------------|
D|---------------------8--5-----8--------------|----------------------------------------------------------------------|
A|---------------------------------------------|----------------------------------------------------------------------|
E|---------------------------------------------|----------------------------------------------------------------------|

e|-13h15-13-15-13-15—13-15-13-10-8-10----------------------8-6-8-10>-9-8---------|
B|-------------------------------------------6-----------8-----------------------|
G|------------------------------------5-6-7---7-6-5---------------------10>12----|
D|---------------------------------------------------8-5-------------------------|
A|-------------------------------------------------------------------------------|
E|-------------------------------------------------------------------------------|


e|---------------|---------------|---------------|---------------|
B|---------------|---------------|---------------|---------------|
G|--0--3--5----0-|---3----6---5--|--0--3--5---3--|----0----------| X2
D|--0--3--5----0-|---3----6---5--|--0--3--5---3--|----0----------|
A|---------------|---------------|---------------|---------------|
E|---------------|---------------|---------------|---------------|


e|-----------------|-----------------|-----------------|-----------------|
B|-----------------|-----------------|-----------------|-----------------|
G|-----------------|-----------------|-----------------|-----------------|
D|---5-5-----5-5---|---5-5-----5-5---|---5-5-----3-3---|---5-5-----5-5---|
A|---5-5-----5-5---|---5-5-----5-5---|---5-5-----3-3---|---5-5-----5-5---| X4
E|---3-3-----3-3---|---3-3-----3-3---|---3-3-----1-1---|---3-3-----3-3---|


e|----------------|----------------|-------------------------|-------------------------|
B|----------------|----------------|-------------------------|-------------------------|
G|---5------------|----------------|-------------------------|-------------------------|
D|---5------------|---6------------|-------------------------|-------------------------|
A|---3------------|---6------------|------1-----1------------|-----1-----1-------------| X1
E|----------------|---4------------|---3-----3-----3--1--3---|--3-----3-----3--1-------|


e|----------------|----------------|
B|----------------|----------------|
G|---5------------|----------------|
D|---5------------|---6------------|
A|---3------------|---6------------| X1
E|----------------|---4------------|


e|---------------|---------------|---------------|---------------|
B|---------------|---------------|---------------|---------------|
G|--0--3--5----0-|---3----6---5--|--0--3--5---3--|----0----------| X4
D|--0--3--5----0-|---3----6---5--|--0--3--5---3--|----0----------|
A|---------------|---------------|---------------|---------------|
E|---------------|---------------|---------------|---------------|


nouveau message Répondre Recherche



Autre liens sur le site pour Deep Purple : Discographie Deep Purple - Tee Shirt Deep Purple - Poster Deep Purple
plan Plan du Forum Tablatures||Tags : water, smoke, video, repris, mec, acoustique, dois, aide, arrive