Apprendre une musique avec les accords mi mineur et la mineur


nouveau message Répondre
Recherche

#
Bonjour je cherche une musique excusez moi de le demandez comme ca mais ne possédant que ces 2 accords là : mi mineur et la mineur

Je suis vraiment débutant et je n'arrive à en enchainer aucun autre donc si pour l'instant quelqu'un veut bien m'aider ^^



#
Ben franchement j'en vois pas icon_cheesygrin
Essaye de les enchainer en rythme simple du genre rock
E||--0----0----0----0----|--0----0----0----0----|--0----0----0----0----|
B||--0----0----0----0----|--1----1----1----1----|--0----0----0----0----|
G||--0----0----0----0----|--2----2----2----2----|--0----0----0----0----|
D||--2----2----2----2----|--2----2----2----2----|--2----2----2----2----|
A||--2----2----2----2----|--0----0----0----0----|--2----2----2----2----|
E||--0----0----0----0----|----------------------|--0----0----0----0----|
--0----0----0----0----||
--1----1----1----1----||
--2----2----2----2----||
--2----2----2----2----||
--0----0----0----0----||
----------------------||


Ou encore en rythme reggae
E||-------0---------0----|-------0---------0----|-------0---------0----|
B||-------0---------0----|-------1---------1----|-------0---------0----|
G||-------0---------0----|-------2---------2----|-------0---------0----|
D||-------2---------2----|-------2---------2----|-------2---------2----|
A||----------------------|--0---------0---------|----------------------|
E||--0---------0---------|----------------------|--0---------0---------|


Q Q Q Q
-------0---------0----||
-------1---------1----||
-------2---------2----||
-------2---------2----||
--0---------0---------||
----------------------||


Ou aussi en arpèges
E||-----------------0--------|--------------0-----------|
B||--------------0-----0-----|-----------1-----1--------|
G||-----------0-----------0--|--------2-----------2-----|
D||--------2-----------------|-----2-----------------2--|
A||-----2--------------------|--0-----------------------|
E||--0-----------------------|--------------------------|


E E E E E E E E E E E E E E E E
-----------------0--------|--------------0-----------||
--------------0-----0-----|-----------1-----1--------||
-----------0-----------0--|--------2-----------2-----||
--------2-----------------|-----2-----------------2--||
-----2--------------------|--0-----------------------||
--0-----------------------|--------------------------||



Il y a plein de manière différentes de travailler les suites d'accords smile
Continue a travailler les autres accords et leur enchainement, en commençant par travailler lentement puis en accélérant quand tu sens que tu maitrise mieux wink

#
kiitchu
kiitchu a écrit :
Bonjour je cherche une musique excusez moi de le demandez comme ca mais ne possédant que ces 2 accords là : mi mineur et la mineur

Je suis vraiment débutant et je n'arrive à en enchainer aucun autre donc si pour l'instant quelqu'un veut bien m'aider ^^

Allons, un peu d'ambition... il y a au moins 2 accords aussi faciles que tu devrais savoir faire très rapidement :
Mi majeur c'est presque pareil que Mi mineur, si tu fais le Mi mineur avec le majeur et l'annulaire l'index se place naturellement sur la 1ère case de la 4ème corde pour faire le Mi majeur.
Do majeur également une position naturelle des doigts.
Avec ça tu t'ouvriras beaucoup de possibilités.

PS: Il y a également Ré majeur (avec 3 doigts, sans barré) et Ré mineur qui ne sont pas très compliqués. La majeur (avec 3 doigts) n'est pas très difficile non plus.

manue22

Petit causeur
35 messages
#
si tu sais faire un LAm....tu sais faire un DO majeur icon_cheesygrin
juste le doigt n°3 a décalé wink

IBANEZ SA120EX.........ampli VYPYR 30+SANPERRA II
bientot la MANUESTRAT icon_cheesygrin

nouveau message Répondre Recherche


plan Plan du Forum Débutants||Tags : mineur, musique, accords, demandez, comme, moi, possedant, excusez, apprendre