Tablature - Nada Surf - Bye bye beauté (Coralie Clément cover)


nouveau message Répondre
Recherche

#
Salut à vous,

Je suis à la recherche désespérément d'une tablature ou des accords de ce morceau tiré du dernier album de Nada Surf "If I had a Hi-Fi". Il s'agit d'une reprise de "Bye bye beauté" de Coralie Clément.

http://www.youtube.com/watch?v=Ul1Y9Pb2g-k

Je suis aussi preneur des autres morceaux de l'album en particulier "Enjoy the silence".

Merci à vous.
A+



#
Finalement, je m'y suis mis et j'ai trouvé le gros à l'oreille (donc pas sûr) et il manque la fin :

Intro (arpèges avec delay) :

e|--------------|--------------|
B|-------4------|-------4------|
G|-----4---4----|-----4---4----|
D|---2-------2--|---2-------2--|
A|--------------|-0------------|
E|-0------------|--------------|

[-------X2------]
[----------------X2------------]

En arpèges :
E
Puisqu'il faut une fin,

Puisqu'on ne se verra plus jamais
Am
De la vie

Sur la bouche

Ou en douce

E
Puisque même un rien

Puisque tu as trop peur
Am
Que je ne vois plus mes pieds

Dans quelque été
E
Tu diras juste

D
Bye Bye,
F E
Bye Bye Beauté
e|--------------|
B|--------------|
G|--------------|
D|--2--0--------|
A|--------3--2--|
E|--------------|
D
Bye Bye,
F E
Bye Bye Beauté

e|------------------|---------------------|
B|------------------|---------------------|
G|-2--1-------------|---------------------|
D|-------4--2--0----|--0------------------|
A|---------------4--|-----4--2--0-/4--2~--|
E|------------------|---------------------|

E
S'il faut un coupable,

S'il te faut un motif
Am
Alors dessine-le

À même le sable
E
À même l'été

E
Nous rentrerons à Paris

Le coeur bien lourd

Un vendredi
Am
En trois mots

Vers la bouche
E
De métro

D
Bye Bye,
F E
Bye Bye Beauté
D
Bye Bye,
F E
Bye Bye Beauté X2

Am* E Am*
(Am* = Am en version barré : 577555)

E
Ça finira comme je l'ai dit
Am*
Dans les larmes, sous la pluie
E
Tout finira comme je l'ai prédit
Am*
Sans vacarme, sans un cri,
E
Peut-être même un vendredi
Am*
Sous une rame, à Bastille,
E
Ça finira comme je l'ai dit
Am*
Comme une panne dans la vie...

Outro : A FAIRE


Je me suis inspiré de cette vidéo live (la seule) : http://www.youtube.com/watch?v=jc3IqA02rEQ~~feature=related
D'ailleurs, on remarquera le "loupé" du début !

Qu'en pensez-vous ?

PS : Désolé pour les accords non alignés (l'espace n'est pas pris en compte)


nouveau message Répondre Recherche


plan Plan du Forum Tablatures||Tags : bye, des, tablature, clement, coralie, beaute, nada, surf, album