Arpège Section 43 - Country Joe & The Fish


nouveau message Répondre
Recherche

#
Bonjour, j'adorerais retrouver l'arpège du début de cette Musique : http://www.youtube.com/watch?v=Sk3-elEqUZs~~feature=related L'arpège commence vers 1m15. C'est une chanson de Country Joe and the Fish ! Et bref, j'ai juste réussi à trouver le premier accord de l'arpège :

---------11-----11--
------12-----12-----
---13------13------
------------------
------------------
-------------------

Merco pour votre aide d'avance !! icon_cheesygrin



mvarlet

Tabber motivé
#
Bonjour,

j'ai mis en ligne dernièrement sur le site la tablature correspondant à ce passage (il est vrai onirique et absolument divin).
Selon les versions enregistrées, la suite d'arpèges commence plus ou moins haut sur le manche.
La version que je communique ici est celle de l'album "Electric Music For The Mind And Body".
Country Joe accordait la plupart du temps (dans ses premiers albums, notamment) sa guitare en Drop D (les deux cordes de ré - 1ère et 6ème - étaient descendues d'un ton.
J'ai déjà déposé une autre tablature sur le site, et j'en déposerai probablement encore prochainement (The Baby Song).
Bien cordialement,
mvarlet

Dm Dsus4
D------------7-----------7-------------------7-----------7--------------
B--------6-----------6-----------6-------8-----------8-----------8------
G----7-----------7-----------7-------7-----------7-----------7----------
D-----------------------------------------------------------------------
A-----------------------------------------------------------------------
D-----------------------------------------------------------------------


Dm A
D------------7-----------7-------------------7-----------7--------------
B--------6-----------6-----------6-------5-----------5-----------5------
G----7-----------7-----------7-------6-----------6-----------6----------
D-----------------------------------------------------------------------
A-----------------------------------------------------------------------
D-----------------------------------------------------------------------


FM7 F2
D------------7-----------7-------------------5-----------5--------------
B--------5-----------5-----------5-------6-----------6-----------6------
G----5-----------5-----------5-------5-----------5-----------5----------
D-----------------------------------------------------------------------
A-----------------------------------------------------------------------
D-----------------------------------------------------------------------


C Dm
D------------5-----------5-------------------3-----------3--------------
B--------5-----------5-----------3-------3-----------3-----------3------
G----5-----------5-----------3-------2-----------2-----------2----------
D-----------------------------------------------------------------------
A-----------------------------------------------------------------------
D-----------------------------------------------------------------------


Dm Dsus4
D------------7-----------7-------------------7-----------7--------------
B--------6-----------6-----------6-------8-----------8-----------8------
G----7-----------7-----------7-------7-----------7-----------7----------
D-----------------------------------------------------------------------
A-----------------------------------------------------------------------
D-----------------------------------------------------------------------


Dm A
D------------7-----------7-------------------7-----------7--------------
B--------6-----------6-----------6-------5-----------5-----------5------
G----7-----------7-----------7-------6-----------6-----------6----------
D-----------------------------------------------------------------------
A-----------------------------------------------------------------------
D-----------------------------------------------------------------------


FM7 F2
D------------7-----------7-------------------5-----------5--------------
B--------5-----------5-----------5-------6-----------6-----------6------
G----5-----------5-----------5-------5-----------5-----------5----------
D-----------------------------------------------------------------------
A-----------------------------------------------------------------------
D-----------------------------------------------------------------------


C Dm
D------------5-----------5-------------------3-----------3--------------
B--------5-----------5-----------3-------3-----------3-----------3------
G----5-----------5-----------3-------2-----------2-----------2----------
D-----------------------------------------------------------------------
A-----------------------------------------------------------------------
D-----------------------------------------------------------------------


Ddim D
D------------1-----------1-------------------0-----------0-----------0--
B--------3-----------3-----------3-------3-----------3-----------3------
G----2-----------2-----------2-------2-----------2-----------2----------
D-----------------------------------------------------------------------
A-----------------------------------------------------------------------
D-----------------------------------------------------------------------


nouveau message Répondre Recherche



Autre liens sur le site pour COUNTRY JOE AND THE FISH : Discographie COUNTRY JOE AND THE FISH - Tee Shirt COUNTRY JOE AND THE FISH - Poster COUNTRY JOE AND THE FISH
plan Plan du Forum Tablatures||Tags : arpege, COUNTRY, country, joe, fish, JOE, FISH, -----, -elequzs