Cherche tablature de Yodelice - my blood is burning


nouveau message Répondre
Recherche

#
Comme sur le sujet de mon post, je cherche la tablature de my blood is burning de Yodelice...
N'ayant pas assez l'oreille pour déchiffrer je me tourne vers vous....
Merci à vous tous...



#
_____________
_____________
_7777________
_7777__55__88 x3
_5555__55__88
_______33__66

_________________
_________________
_________________ puis retour au début
77__55__33__22___
77__55__33__22___
55__33__11__00___

je n'ai pas encore le solo, voila bonne gratte smiley-guitar

#
merci pour la partoch, mais si quelqu'un avait aussi le solo? merci

#
C'est quelque chose qui doit ressembler + ou - à ça...
Si quelqu'un a mieux à proposer, tant mieux... mais je pense que c'est un bon début...

E |-------------------------------------------------------|
B |--------10-------8-----7-------------------------------|
G |--------------------------------7----------------------|
D |--------------------------------------7--------5-------|
A |-------------------------------------------------------|
E |-------------------------------------------------------|


----------------------------|
--------8--8-----8-----7----|
-----7--------7-----7-------|
--8-------------------------|
----------------------------|
----------------------------|


-------------------------------------------------------|
--------10-------8-----7-------------------------------|
--------------------------------7----------------------|
--------------------------------------7--------5-------|
-------------------------------------------------------|
-------------------------------------------------------|


-------------------------|
--------8--11-10-8--7----|
-----7-------------------|
--8----------------------|
-------------------------|
-------------------------|


-------------------------------------------------------|
--------10-------8-----7-------------------------------|
--------------------------------7----------------------|
--------------------------------------7--------5-------|
-------------------------------------------------------|
-------------------------------------------------------|


----------------------------|----------------|
--------8--8-----8----------|----------------|
-----7--------7-----7--9----|-----9--10------|
--8-------------------------|----------------|
----------------------------|----------------|
----------------------------|----------------|


-----------15-13------------------------|
--------15-------15-15-13---------------|
--14-14-------------------14-14-12-10---|
----------------------------------------|
----------------------------------------|
----------------------------------------|

#
ahh merci beaucoup...je galerais pour les trouver aussi!

#
Plus simple smile
D - Gm - Bb
A /A/G/F/E
JC

#
Dites moi ce que vous pensez de ça : je n'ai pas trouvé à partir du moment où il se met a enchaîner les doubles croches ...

B- - 8b10- - - 8- -7 - - - - - - - - -
G- - - - - - - - - - - - - -7 - - - - - - -
D- - - - - - - - - - - - - - - - - 7- - 5-

B - - - - - - - -8 - 8- - - - - 8- -
G- - - - - 7- - - - - - - -7 - - - -
D - 8- - - - - - - - - - - - - - - -

B- - - - -7~ - - - - - -8b10 - -8 - - 7
G- -7 - - - - - - - - - - - - - - - - - - - -
D- - - - - - - - - - - - - - - - - - - - - - -

B - - - - - - - - - - - - - - - -
G -7- - - - - - - - - - -7
D - - 7- - 5- - - 8 - - -

B- -8 - - 10b- -10 - -8 - - 7- - -
G- - - - - - - - - - - - - - - - - - - -
D - - - - - - - - - - - - - - - - - - - -

B - - - 8b10- -8 - -7 - - - - - -
G - - - - - - - - - - - - - 7- - - - -
D - - - - - - - - - - - - - - - 7 - -5

B - - - - - - -8 - 8- - - -8 - - - - - - - - - - -
G - - - -7 - - - - - - 7- - - - 7- - -9 - - -9/10
D - -8 - - - - - - - - - - - - - - - - - - - - - - -

~ vibrato
/ slide
b bend

Bonne gratte smile


nouveau message Répondre Recherche


plan Plan du Forum Tablatures||Tags : blood, cherche, burning, yodelice, tablature, sujet, comme, post, ayant