Recherche le titre de cette chanson


nouveau message Répondre
Page 1 de 3
Recherche

#
Bonjour,

Je n'ai pas eu de réponses dans le forum des tabs donc je viens ici icon_cheesygrin

J'ai une tab et je cherche le nom de la chanson, la voici :

|-----------------------------------||x4
|-----------------------------------||
|----------------------------------.||
|----------------------------------.||
|--------1--2--3--3--3--1-------||
|-----3-----------------------3----||

C'est juste un bout mais bon c'est connu ça ne devrait pas être trop dur à trouver :p

Merci d'avance



#
Est-ce que quelqu'un peut sortir sa gratte ? smyleybleu

pascal17

Petit causeur
Jeune tabber
Petit Downloader
11 photos
Membre VIP
51 messages
Modérateur
#
moi je l'ai sorti,
ya longtemps,
franchement ca me dis rien....

dsl


(et 'nos grattes sont toujours sorties'... icon_cheesygrin )

je 'ai complété le titre,
ca aidera peut etre.

chipie.foxtrot

Modérateur
#
c'est vrai, il n'y en a pas tout-à-fait assez pour qu'on voit ce que c'est wink

voir c'est entendre,c'est toucher,c'est retirer le voile qui sépare l'essentiel de l'apparent
(Tahar ben jelloun)....
je joue toujours de la guitare à six schtroumpfs
#
Merci pour le titre :)

Le rythme c'est des croches et la première note commence à contre-temps.

----S--S--S--S--S--S--S--------S--S--S--S--S--S--S--S--
|-----------------------------------||----------------------------------||x3
|-----------------------------------||----------------------------------||
|-----------------------------------||---------------------------------.||
|-----------------------------------||---------------------------------.||
|-----------1--2--3--3--3--1----||---------1--2--3--3--3--1----||
|-------3--------------------------||---3--3-------------------------||

Ensuite

---S--S--S--S--S--S--S--------S--S--S--S--S--S--S--S--
|-----------------------------------||------------------------------------||
|-----------------------------------||------------------------------------||
|-----------------------------------||------------------------------------||
|---------1--2--3--3--3--1------||-----------1--2--3--3--3--1----||
|------3----------------------------||---3--3---------------------------||
|---3-------------------------------||------------------------------------||

Et ça recommence :

---S--S--S--S--S--S--S---------S--S--S--S--S--S--S--S--
|-----------------------------------||-------------------------------------||
|-----------------------------------||-------------------------------------||
|-----------------------------------||-------------------------------------||
|-----------------------------------||-------------------------------------||
|---3-----1--2--3--3--3--1-----||-----------1--2--3--3--3--3--1--||
|------3---------------------------||----3--3----------------------------||


Voilà c'est un peu plus complet :p

Il en faut encore il reste 4 phrases ?

#
les autres phrases sont encore différentes ? la ça me dit rien sur le coup

#
C'est le même doigté mais plus aigu :p

#
Ben ca à l'air d'un blues, donc c'est sur ca laisse une impression de déjà vu
après de la à dire ce que c'est... bump

#
Bon tant pis alors je laisse couler.
Merci quand même wink

pascal17

Petit causeur
Jeune tabber
Petit Downloader
11 photos
Membre VIP
51 messages
Modérateur
#
 Citation :
Ben ca à l'air d'un blues, donc c'est sur ca laisse une impression de déjà vu


c'est tout à fait mon avis...
quel tempo?
si c'est dans les 185 Bpm,
ce serait pas Rock n' Roll de Led Zep quand même?

http://www.youtube.com/watch?v=cK_ZCNucxmI~~feature=related

#
Bonjour !


je connais cet air ... y'a plus qu'à retrouver son titre !

Au passage, merci pour la tablature, je m'en vais grattouiller ça un peu ce soir (j'ai écouté avec TuxGuitar car là je suis à 20km de ma gratte).

Si tout est en croches, je verrais bien un tempo d'au moins 170/180 là dessus, comme pascal17.


Edit : mon père et ma soeur jouaient ça au piano il y a quelques années, je vais leur faire écouter : ils ont peut-être une meilleure mémoire que moi !

Gorgonzola

#
Non c'est pas aussi rapide ! Je dirais 120 bpm voire un tout petit peu plus.

#
Bonjour !

Effectivement, un tempo sensiblement plus bas que 170 d'après mon père. Il m'indique aussi que selon lui c'est la ligne de basse d'un boogie (c'est à dire ce qui est joué par la main gauche au piano), mais étant un riff assez classique du genre il n'arrive pas à trouver un titre en particulier pour aller avec ça.


Gorgonzola

pascal17

Petit causeur
Jeune tabber
Petit Downloader
11 photos
Membre VIP
51 messages
Modérateur
#
 Citation :
c'est la ligne de basse d'un boogie (c'est à dire ce qui est joué par la main gauche au piano), mais c'est un riff assez classique du genre


c'est exactement ce que je pense.

mais, dis, c'est pas guitar boogie quand meme?:
http://www.deezer.com/fr/#music/arthur-guitar-boogie-smith

#
Non, ce n'est pas guitar boogie, je connais cet air, faut que je cherche encore hammer hammer

Edit: je pense qu'il y a un solo de batterie après la ou les phrases qui manquent encore



nouveau message Répondre
Page 1 de 3
Recherche


plan Plan du Forum Débutants||Tags : chanson, avance, voici, forum, recherche, reponses, nom, cherche, tabs