The house of the rising sun


nouveau message Répondre
Recherche

#
J'ai trouvé une adaptation de cette chanson avec des basses, c'est très simpas à jouer mais je sais pas comment on fait une tablature pour vous en faire profiter!



#
moi jaimerai bien cette chanson el est terrible...ta ka la faire sur guitar pro....non???

#
salut

The house of the rising sun c' est le penitencier en anglais donc il y a plein d'adaptation sur cette chason mais si tu en as ne autre tu le fait sur le bloc note puis copier/coller et tu utilise le "-" pour les cordes enfin tu as compris

#
J'y suis arrivée! éclatez-vous bien et donnez moi des news!


The house of the rising Sun

The Animals

Cette tablature n’est pas le morceau interprété par le guitariste mais une adaptation avec des basses.
Le morceau se joue en 6/8
Schéma : P1, P2, P3, P2, P4


P1 /P2
Am C D F Am
E|---/-------0-----/-------0-----/-------2-----/-------1-----/-------5-----
B|---/-----1---1---/-----1---1---/-----3---3—--/-----1---1---/-----5---5---
G|---/---2---------/---0---------/---2---------/---2-------2-/---5-------7-
D|---/-------------/-----------2-/-0-----------/-------------/-7-----------
A|---/-0---------2-/-3-----------/-----------0-/-3-----------/-------------
E|-0-/-------------/-------------/-------------/-------------/-------------


C E E7 Am C
E|-------3-----/-------0-----/------0-----/-------0-----/-------0----------
B|-----5---5---/-----0---0---/----3---1---/-----1---1---/-----1---1--------
G|---5---------/---1-------1-/--1---------/---2---------/---0--------------
D|-5---------2-/-2-----------/------------/-------------/-----------2------
A|-------------/-------------/------------/-0---------2-/-3----------------
E|-------------/-------------/-0--------4-/-------------/------------------


D F Am E
E|-------2-----/-------1-----/-------0-----/-------0-----------------------
B|-----3---3---/-----1---1---/-----1---1---/-----0---0---------------------
G|---2---------/---2---------/---2---------/---1---------------------------
D|-0-----------/-------------/-------------/-------------------------------
A|-----------0-/-3---------0-/-0-----------/-------------------------------
E|-------------/-------------/-----------4-/-0---------4-------------------


P3
Am E7
E|-------0-----/-0-0-0--0-0------------------------------------------------
B|-----1---1---/-3-3-3--3-3------------------------------------------------
G|---2-------2-/-1-1-1--1-1------------------------------------------------
D|-------------/-----------------------------------------------------------
A|-0-----------/-----------------------------------------------------------
E|-------------/-0------0---0----------------------------------------------


P4
Am Dm Am Am9
E|-------0-----/-------1-----/-------0-----/-7-----------------------------
B|-----1---1---/-----3---3---/-----1---1---/-5-----------------------------
G|---2-------2-/---2-------2-/---2-------2-/-5-----------------------------
D|-------------/-0-----------/-------------/-------------------------------
A|-0-----------/-------------/-0-----------/-0-----------------------------
E|-------------/-------------/-------------/-------------------------------


J’espère que vous aurez autant de plaisir que moi à jouer ce morceau!
N’hésite pas si vous avez des suggestions !

#
c'est une des chansons les plus reprises : j'en ai des versions par les animals, les stones, les floyd, Elvis, Joan Baez, Tracy Chapman

#
endesaccord1 Pas d'insultes!

#
où est l'insulte???? hum

#
Dsl me suis plantée c'était pas pour toi!
T'as au moins essayé cette version?

#
j'ai pas essayé ta tablature mais je sais déjà la jouer. Simple mais efficace, juste un peu dure à chanter wink

#
oki tanpis si tu veux pas jeter un piti cou d'oeil! Pour la chonson ça va il monte pas haut donc c pas bien dur de chanter, mon seul problème c'est que j'ai personne pour m'accompagner!

hand87_5

Yoda...Tabber
#
Pour le FA je te recommande

587565

Ca jette plus et c'est plus proche de l'original.

#
je te le dis franchement c'est l'accord que j'arrive le moins bien à faire, je les connais pas tous, il y en as surement des pires...
Je préfère tout de même le Fa, pas pour sa simplicité! Merci pour ta suggestion! Sinon elle te plait cette version?


nouveau message Répondre Recherche


plan Plan du Forum Débutants||Tags : house, des, basses, chanson, adaptation, rising, sun, trouve, tres