Dust in the wind


nouveau message Répondre
Recherche

#
J'adore cette chanson mais je trouve pas de tabs qui sonne bien! Help me please!



hand87_5

Yoda...Tabber
#



|---------------|---------------|-----------------
|-1-------1-----|-0-------0-----|-3-------3-------
|-----0-------0-|-----0-------0-|-----0-------0---
|---2-------2---|---2-------2---|---2-------2-----
|-3-----3-------|-3-----3-------|-3-----3---------
|---------------|---------------|-----------------


|---------------|---------------|-----------------
|-1-------1-----|-0-------0-----|-3-------3-------
|-----0-------0-|-----2-------2-|-----2-------2---
|---2-------2---|---2-------2---|---2-------2-----
|-3-----3-------|-0-----0-------|-0-----0---------
|---------------|---------------|-----------------


|---------------|---------------|-----------------
|-1-------1-----|-0-------0-----|-3-------3-------
|-----2-------2-|-----2-------2-|-----0-------0---
|---2-------2---|---2-------2---|---2-------2-----
|-0-----0-------|-0-----0-------|-3-----3---------
|---------------|---------------|-----------------


|---------------|---------------|-----------------
|-1-------1-----|-0-------0-----|-3-------3-------
|-----0-------2-|-----0-------0-|-----0-------0---
|---2-------2---|---2-------2---|---2-------2-----
|-3-----3-------|-3-----3-------|-3-----3---------
|---------------|---------------|-----------------


|---------------|---------------|-----------------
|-1-------1-----|-0-------0-----|-3-------3-------
|-----2-------2-|-----2-------2-|-----2-------2---
|---2-------2---|---2-------2---|---2-------2-----
|-0-----0-------|-0-----0-------|-0-----0---------
|---------------|---------------|-----------------


|---------------|
|-1-------1-----|
|-----2-------2-|
|---2-------2---|
|-3-----3-------|
|---------------|



#
merki mais je connais déjà le début c'est la suite où je coince!

hand87_5

Yoda...Tabber
#
Version + complete. c'est comme ça que je lma joue.





INTRO :

C (add pinky on 2nd time around on the 2nd string)

--------0-------|-------0-------|------0------|-----0-------|
---1--------1---|--0--------0---|--3-------0--|-1-------1---|
------0-------0-|-----0-------0-|----0-------0|---0-------0-|
----------------|---------------|-------------|-------------|
---3------3-----|--3------3-----|--3-----3----|-3-----3-----|
----------------|---------------|-------------|-------------|

Am

------0---------|------0--------|------0------|-----0-------|
--0-------0-----|--3-------3----|--1------1---|-0-------0---|
----2-------2---|----2-------2--|----2------2-|---2-------2-|
----------------|---------------|-------------|-------------|
--0-----0-------|--0-----0------|--0-----0----|-0-----0-----|
----------------|---------------|-------------|-------------|



I close my eyes

-----0----|------3-------|------0------|------0-------------|
--1----1--|--3-------3---|--0------0---|--0-------0---------|
----0---0-|----0-------0-|----2------2-|----2-------2-------|
----------|--------------|-------------|--------------------|
--3---3---|--2-----2-----|--0-----0----|--0-----0-----------|
----------|--------------|-------------|-------------------=|


only for a moment and the moments gone

------3------|------1-------|------0-------|------0---------|
--0------0---|--2------2----|--1------1----|--1-------1-----|
----0------0-|----2------2--|----2------2--|----2--------2--|
-------------|--3-----3-----|--------------|----------------|
-------------|--------------|--0-----0-----|--0-----0-------|
--3----3-----|--------------|--------------|---------------=|

( bridge ) h = hammer

all ...........

------------|--------|------0-------|
---0-h-1----|------0-|--1-------1---|
---------2--|--2-----|----0-------0-|
------------|--------|--------------|
---0--------|--0---2-|--3-----3-----|
------------|-----------------------|

CHORUS: G Am

all we are is dust in the wind (bridge):

same old song.........
--------|----|----------0-----------|
--0-h-1-|--3-|----1----------1------|
--------|----|-------0----------0---|
--------|----|----------------------|
--0-----|--2-|----3-------3---------|
--------|----|----------------------|


#
http://raphy.lost-oasis.net/tuyaux/tutorial.htm
Regarde à cette adresse! Ca paraît juste mais j'arrive pas à trouver comment il fait!

#
c'est vrais qu'il est bon ce morceau. g galerer une semaine dessus, mais ca vien vite. il suffit de memoriser l'arpege, ca demande un peu deffort mais ca vien asses vite en bossant lol. G la tab complete et juste en texte ou gtp4 si ca vous dit. bonne gratte smiley-guitar

#
moi non plus jai pô compris comment il fait mai c sonne mieu ke moi en tou k


nouveau message Répondre Recherche


plan Plan du Forum Débutants||Tags : dust, chanson, adore, wind, trouve, tabs, please, help, bien